  0
SECTION
  2
HEADER
  9
$ACADVER
  1
AC1015
  9
$ACADMAINTVER
 70
     6
  9
$DWGCODEPAGE
  3
ANSI_1252
  9
$INSBASE
 10
0.0
 20
0.0
 30
0.0
  9
$EXTMIN
 10
0.0
 20
0.0
 30
0.0
  9
$EXTMAX
 10
11.0
 20
8.5
 30
0.0
  9
$LIMMIN
 10
0.0
 20
0.0
  9
$LIMMAX
 10
11.0
 20
8.5
  9
$ORTHOMODE
 70
     0
  9
$REGENMODE
 70
     1
  9
$FILLMODE
 70
     1
  9
$QTEXTMODE
 70
     0
  9
$MIRRTEXT
 70
     1
  9
$LTSCALE
 40
1.0
  9
$ATTMODE
 70
     1
  9
$TEXTSIZE
 40
0.1666666667
  9
$TRACEWID
 40
0.05
  9
$TEXTSTYLE
  7
Standard
  9
$CLAYER
  8
0
  9
$CELTYPE
  6
ByLayer
  9
$CECOLOR
 62
   256
  9
$CELTSCALE
 40
1.0
  9
$DISPSILH
 70
     0
  9
$DIMSCALE
 40
1.0
  9
$DIMASZ
 40
0.09
  9
$DIMEXO
 40
0.05
  9
$DIMDLI
 40
0.38
  9
$DIMRND
 40
0.0
  9
$DIMDLE
 40
0.0
  9
$DIMEXE
 40
0.0625
  9
$DIMTP
 40
0.0
  9
$DIMTM
 40
0.0
  9
$DIMTXT
 40
0.1666666667
  9
$DIMCEN
 40
0.09
  9
$DIMTSZ
 40
0.0
  9
$DIMTOL
 70
     0
  9
$DIMLIM
 70
     0
  9
$DIMTIH
 70
     1
  9
$DIMTOH
 70
     1
  9
$DIMSE1
 70
     0
  9
$DIMSE2
 70
     0
  9
$DIMTAD
 70
     0
  9
$DIMZIN
 70
     0
  9
$DIMBLK
  1

  9
$DIMASO
 70
     1
  9
$DIMSHO
 70
     1
  9
$DIMPOST
  1

  9
$DIMAPOST
  1

  9
$DIMALT
 70
     0
  9
$DIMALTD
 70
     2
  9
$DIMALTF
 40
25.4
  9
$DIMLFAC
 40
1.0
  9
$DIMTOFL
 70
     0
  9
$DIMTVP
 40
0.0
  9
$DIMTIX
 70
     0
  9
$DIMSOXD
 70
     0
  9
$DIMSAH
 70
     0
  9
$DIMBLK1
  1

  9
$DIMBLK2
  1

  9
$DIMSTYLE
  2
Standard
  9
$DIMCLRD
 70
     0
  9
$DIMCLRE
 70
     0
  9
$DIMCLRT
 70
     0
  9
$DIMTFAC
 40
1.0
  9
$DIMGAP
 40
0.06
  9
$DIMJUST
 70
     0
  9
$DIMSD1
 70
     0
  9
$DIMSD2
 70
     0
  9
$DIMTOLJ
 70
     1
  9
$DIMTZIN
 70
     0
  9
$DIMALTZ
 70
     0
  9
$DIMALTTZ
 70
     0
  9
$DIMUPT
 70
     0
  9
$DIMDEC
 70
     2
  9
$DIMTDEC
 70
     2
  9
$DIMALTU
 70
     2
  9
$DIMALTTD
 70
     2
  9
$DIMTXSTY
  7
Standard
  9
$DIMAUNIT
 70
     0
  9
$DIMADEC
 70
     0
  9
$DIMALTRND
 40
0.0
  9
$DIMAZIN
 70
     0
  9
$DIMDSEP
 70
    46
  9
$DIMATFIT
 70
     3
  9
$DIMFRAC
 70
     0
  9
$DIMLDRBLK
  1

  9
$DIMLUNIT
 70
     2
  9
$DIMLWD
 70
    -2
  9
$DIMLWE
 70
    -2
  9
$DIMTMOVE
 70
     0
  9
$LUNITS
 70
     2
  9
$LUPREC
 70
     2
  9
$SKETCHINC
 40
0.1
  9
$FILLETRAD
 40
0.5
  9
$AUNITS
 70
     0
  9
$AUPREC
 70
     0
  9
$MENU
  1
.
  9
$ELEVATION
 40
0.0
  9
$PELEVATION
 40
0.0
  9
$THICKNESS
 40
0.0
  9
$LIMCHECK
 70
     0
  9
$CHAMFERA
 40
0.0
  9
$CHAMFERB
 40
0.0
  9
$CHAMFERC
 40
0.0
  9
$CHAMFERD
 40
0.0
  9
$SKPOLY
 70
     0
  9
$TDCREATE
 40
2456903.635956863
  9
$TDUCREATE
 40
2456903.844290197
  9
$TDUPDATE
 40
2456903.635958148
  9
$TDUUPDATE
 40
2456903.844291482
  9
$TDINDWG
 40
0.0000000116
  9
$TDUSRTIMER
 40
0.0000000116
  9
$USRTIMER
 70
     1
  9
$ANGBASE
 50
0.0
  9
$ANGDIR
 70
     0
  9
$PDMODE
 70
     0
  9
$PDSIZE
 40
-1.0
  9
$PLINEWID
 40
0.0
  9
$SPLFRAME
 70
     0
  9
$SPLINETYPE
 70
     6
  9
$SPLINESEGS
 70
     8
  9
$HANDSEED
  5
2D2
  9
$SURFTAB1
 70
     6
  9
$SURFTAB2
 70
     6
  9
$SURFTYPE
 70
     6
  9
$SURFU
 70
     6
  9
$SURFV
 70
     6
  9
$UCSBASE
  2

  9
$UCSNAME
  2

  9
$UCSORG
 10
0.0
 20
0.0
 30
0.0
  9
$UCSXDIR
 10
1.0
 20
0.0
 30
0.0
  9
$UCSYDIR
 10
0.0
 20
1.0
 30
0.0
  9
$UCSORTHOREF
  2

  9
$UCSORTHOVIEW
 70
     0
  9
$UCSORGTOP
 10
0.0
 20
0.0
 30
0.0
  9
$UCSORGBOTTOM
 10
0.0
 20
0.0
 30
0.0
  9
$UCSORGLEFT
 10
0.0
 20
0.0
 30
0.0
  9
$UCSORGRIGHT
 10
0.0
 20
0.0
 30
0.0
  9
$UCSORGFRONT
 10
0.0
 20
0.0
 30
0.0
  9
$UCSORGBACK
 10
0.0
 20
0.0
 30
0.0
  9
$PUCSBASE
  2

  9
$PUCSNAME
  2

  9
$PUCSORG
 10
0.0
 20
0.0
 30
0.0
  9
$PUCSXDIR
 10
1.0
 20
0.0
 30
0.0
  9
$PUCSYDIR
 10
0.0
 20
1.0
 30
0.0
  9
$PUCSORTHOREF
  2

  9
$PUCSORTHOVIEW
 70
     0
  9
$PUCSORGTOP
 10
0.0
 20
0.0
 30
0.0
  9
$PUCSORGBOTTOM
 10
0.0
 20
0.0
 30
0.0
  9
$PUCSORGLEFT
 10
0.0
 20
0.0
 30
0.0
  9
$PUCSORGRIGHT
 10
0.0
 20
0.0
 30
0.0
  9
$PUCSORGFRONT
 10
0.0
 20
0.0
 30
0.0
  9
$PUCSORGBACK
 10
0.0
 20
0.0
 30
0.0
  9
$USERI1
 70
     0
  9
$USERI2
 70
     0
  9
$USERI3
 70
     0
  9
$USERI4
 70
     0
  9
$USERI5
 70
     0
  9
$USERR1
 40
0.0
  9
$USERR2
 40
0.0
  9
$USERR3
 40
0.0
  9
$USERR4
 40
0.0
  9
$USERR5
 40
0.0
  9
$WORLDVIEW
 70
     1
  9
$SHADEDGE
 70
     3
  9
$SHADEDIF
 70
    70
  9
$TILEMODE
 70
     1
  9
$MAXACTVP
 70
    64
  9
$PINSBASE
 10
0.0
 20
0.0
 30
0.0
  9
$PLIMCHECK
 70
     0
  9
$PEXTMIN
 10
1.0000000000E+20
 20
1.0000000000E+20
 30
1.0000000000E+20
  9
$PEXTMAX
 10
-1.0000000000E+20
 20
-1.0000000000E+20
 30
-1.0000000000E+20
  9
$PLIMMIN
 10
0.0
 20
0.0
  9
$PLIMMAX
 10
12.0
 20
9.0
  9
$UNITMODE
 70
     0
  9
$VISRETAIN
 70
     1
  9
$PLINEGEN
 70
     0
  9
$PSLTSCALE
 70
     1
  9
$TREEDEPTH
 70
  3020
  9
$CMLSTYLE
  2
Standard
  9
$CMLJUST
 70
     0
  9
$CMLSCALE
 40
1.0
  9
$PROXYGRAPHICS
 70
     1
  9
$MEASUREMENT
 70
     0
  9
$CELWEIGHT
370
    -1
  9
$ENDCAPS
280
     0
  9
$JOINSTYLE
280
     0
  9
$LWDISPLAY
290
     1
  9
$INSUNITS
 70
     1
  9
$HYPERLINKBASE
  1

  9
$STYLESHEET
  1

  9
$XEDIT
290
     1
  9
$CEPSNTYPE
380
     0
  9
$PSTYLEMODE
290
     1
  9
$FINGERPRINTGUID
  2
{B6980E53-E944-4D36-B64D-3467C41D272F}
  9
$VERSIONGUID
  2
{FAEB1C32-E019-11D5-929B-00C0DF256EC4}
  9
$EXTNAMES
290
     1
  9
$PSVPSCALE
 40
0.0
  9
$OLESTARTUP
290
     0
  0
ENDSEC
  0
SECTION
  2
CLASSES
  0
CLASS
  1
ACDBDICTIONARYWDFLT
  2
AcDbDictionaryWithDefault
  3
ObjectDBX Classes
 90
        0
280
     0
281
     0
  0
CLASS
  1
VISUALSTYLE
  2
AcDbVisualStyle
  3
ObjectDBX Classes
 90
     4095
280
     0
281
     0
  0
CLASS
  1
MATERIAL
  2
AcDbMaterial
  3
ObjectDBX Classes
 90
     1153
280
     0
281
     0
  0
CLASS
  1
SCALE
  2
AcDbScale
  3
ObjectDBX Classes
 90
     1153
280
     0
281
     0
  0
CLASS
  1
SUN
  2
AcDbSun
  3
SCENEOE
 90
     1153
280
     0
281
     0
  0
CLASS
  1
ACDBPLACEHOLDER
  2
AcDbPlaceHolder
  3
ObjectDBX Classes
 90
        0
280
     0
281
     0
  0
CLASS
  1
LAYOUT
  2
AcDbLayout
  3
ObjectDBX Classes
 90
        0
280
     0
281
     0
  0
ENDSEC
  0
SECTION
  2
TABLES
  0
TABLE
  2
VPORT
  5
8
330
0
100
AcDbSymbolTable
 70
     1
  0
VPORT
  5
29
330
8
100
AcDbSymbolTableRecord
100
AcDbViewportTableRecord
  2
*Active
 70
     0
 10
0.0
 20
0.0
 11
1.0
 21
1.0
 12
5.5
 22
4.25
 13
0.0
 23
0.0
 14
0.5
 24
0.5
 15
0.5
 25
0.5
 16
0.0
 26
0.0
 36
1.0
 17
0.0
 27
0.0
 37
0.0
 40
8.5
 41
1.2941176471
 42
50.0
 43
0.0
 44
0.0
 50
0.0
 51
0.0
 71
     0
 72
  2000
 73
     1
 74
     3
 75
     0
 76
     0
 77
     0
 78
     0
281
     0
 65
     1
110
0.0
120
0.0
130
0.0
111
1.0
121
0.0
131
0.0
112
0.0
122
1.0
132
0.0
 79
     0
146
0.0
  0
ENDTAB
  0
TABLE
  2
LTYPE
  5
5
330
0
100
AcDbSymbolTable
 70
     6
  0
LTYPE
  5
14
330
5
100
AcDbSymbolTableRecord
100
AcDbLinetypeTableRecord
  2
ByBlock
 70
     0
  3

 72
    65
 73
     0
 40
0.0
  0
LTYPE
  5
15
330
5
100
AcDbSymbolTableRecord
100
AcDbLinetypeTableRecord
  2
ByLayer
 70
     0
  3

 72
    65
 73
     0
 40
0.0
  0
LTYPE
  5
16
330
5
100
AcDbSymbolTableRecord
100
AcDbLinetypeTableRecord
  2
Continuous
 70
     0
  3
Solid line
 72
    65
 73
     0
 40
0.0
  0
LTYPE
  5
6A
330
5
100
AcDbSymbolTableRecord
100
AcDbLinetypeTableRecord
  2
HIDDEN
 70
     0
  3
Hidden __ __ __ __ __ __ __ __ __ __ __ __ __ __
 72
    65
 73
     2
 40
0.075
 49
0.05
 74
     0
 49
-0.025
 74
     0
  0
LTYPE
  5
6B
330
5
100
AcDbSymbolTableRecord
100
AcDbLinetypeTableRecord
  2
PHANTOM
 70
     0
  3
Phantom ______  __  __  ______  __  __  ______
 72
    65
 73
     6
 40
0.5
 49
0.25
 74
     0
 49
-0.05
 74
     0
 49
0.05
 74
     0
 49
-0.05
 74
     0
 49
0.05
 74
     0
 49
-0.05
 74
     0
  0
LTYPE
  5
6C
330
5
100
AcDbSymbolTableRecord
100
AcDbLinetypeTableRecord
  2
CENTER
 70
     0
  3
Center ____ _ ____ _ ____ _ ____ _ ____ _ ____
 72
    65
 73
     4
 40
0.4
 49
0.25
 74
     0
 49
-0.05
 74
     0
 49
0.05
 74
     0
 49
-0.05
 74
     0
  0
LTYPE
  5
6D
330
5
100
AcDbSymbolTableRecord
100
AcDbLinetypeTableRecord
  2
CENTERX2
 70
     0
  3
Center (2x) ________  __  ________  __  _____
 72
    65
 73
     4
 40
0.8
 49
0.5
 74
     0
 49
-0.1
 74
     0
 49
0.1
 74
     0
 49
-0.1
 74
     0
  0
LTYPE
  5
6E
330
5
100
AcDbSymbolTableRecord
100
AcDbLinetypeTableRecord
  2
DOT2
 70
     0
  3
Dot (.5x) ........................................
 72
    65
 73
     2
 40
0.025
 49
0.0
 74
     0
 49
-0.025
 74
     0
  0
ENDTAB
  0
TABLE
  2
LAYER
  5
2
330
0
100
AcDbSymbolTable
 70
     3
  0
LAYER
  5
10
330
2
100
AcDbSymbolTableRecord
100
AcDbLayerTableRecord
  2
0
 70
     0
 62
     7
  6
Continuous
370
    -3
390
F
  0
LAYER
  5
6F
330
2
100
AcDbSymbolTableRecord
100
AcDbLayerTableRecord
  2
SLD-0
 70
     0
 62
    -7
  6
Continuous
370
    -3
390
F
  0
LAYER
  5
70
330
2
100
AcDbSymbolTableRecord
100
AcDbLayerTableRecord
  2
FORMAT
 70
     0
 62
     7
  6
Continuous
370
    -3
390
F
  0
ENDTAB
  0
TABLE
  2
STYLE
  5
3
330
0
100
AcDbSymbolTable
 70
     2
  0
STYLE
  5
11
330
3
100
AcDbSymbolTableRecord
100
AcDbTextStyleTableRecord
  2
Standard
 70
     0
 40
0.0
 41
1.0
 50
0.0
 71
     0
 42
0.1666666667
  3
txt
  4

  0
STYLE
  5
2D0
330
3
100
AcDbSymbolTableRecord
100
AcDbTextStyleTableRecord
  2
SLDTEXTSTYLE0
 70
     0
 40
0.0
 41
0.605
 50
0.0
 71
     0
 42
0.1666666667
  3
TXT
  4

  0
ENDTAB
  0
TABLE
  2
VIEW
  5
6
330
0
100
AcDbSymbolTable
 70
     0
  0
ENDTAB
  0
TABLE
  2
UCS
  5
7
330
0
100
AcDbSymbolTable
 70
     0
  0
ENDTAB
  0
TABLE
  2
APPID
  5
9
330
0
100
AcDbSymbolTable
 70
     1
  0
APPID
  5
12
330
9
100
AcDbSymbolTableRecord
100
AcDbRegAppTableRecord
  2
ACAD
 70
     0
  0
ENDTAB
  0
TABLE
  2
DIMSTYLE
  5
A
330
0
100
AcDbSymbolTable
 70
     1
100
AcDbDimStyleTable
  0
DIMSTYLE
105
27
330
A
100
AcDbSymbolTableRecord
100
AcDbDimStyleTableRecord
  2
Standard
 70
     0
178
     0
340
11
  0
ENDTAB
  0
TABLE
  2
BLOCK_RECORD
  5
1
330
0
100
AcDbSymbolTable
 70
     1
  0
BLOCK_RECORD
  5
1F
330
1
100
AcDbSymbolTableRecord
100
AcDbBlockTableRecord
  2
*Model_Space
340
22
  0
BLOCK_RECORD
  5
1B
330
1
100
AcDbSymbolTableRecord
100
AcDbBlockTableRecord
  2
*Paper_Space
340
1E
  0
BLOCK_RECORD
  5
23
330
1
100
AcDbSymbolTableRecord
100
AcDbBlockTableRecord
  2
*Paper_Space0
340
26
  0
ENDTAB
  0
ENDSEC
  0
SECTION
  2
BLOCKS
  0
BLOCK
  5
20
330
1F
100
AcDbEntity
  8
0
100
AcDbBlockBegin
  2
*Model_Space
 70
     0
 10
0.0
 20
0.0
 30
0.0
  3
*Model_Space
  1
*Model_Space
  0
ENDBLK
  5
21
330
1F
100
AcDbEntity
  8
0
100
AcDbBlockEnd
  0
BLOCK
  5
1C
330
1B
100
AcDbEntity
 67
     1
  8
0
100
AcDbBlockBegin
  2
*Paper_Space
 70
     0
 10
0.0
 20
0.0
 30
0.0
  3
*Paper_Space
  1
*Paper_Space
  0
ENDBLK
  5
1D
330
1B
100
AcDbEntity
 67
     1
  8
0
100
AcDbBlockEnd
  0
BLOCK
  5
24
330
23
100
AcDbEntity
  8
0
100
AcDbBlockBegin
  2
*Paper_Space0
 70
     0
 10
0.0
 20
0.0
 30
0.0
  3
*Paper_Space0
  1
*Paper_Space0
  0
ENDBLK
  5
25
330
23
100
AcDbEntity
  8
0
100
AcDbBlockEnd
  0
ENDSEC
  0
SECTION
  2
ENTITIES
  0
ARC
  5
71
330
1F
100
AcDbEntity
  8
0
  6
Continuous
 62
     7
370
    30
100
AcDbCircle
 10
5.742427043
 20
5.7313814443
 30
0.0
 40
0.0150000000000002
100
AcDbArc
 50
229.8738546678
 51
270.0
  0
ARC
  5
72
330
1F
100
AcDbEntity
  8
0
  6
Continuous
 62
     7
370
    30
100
AcDbCircle
 10
5.367427043
 20
5.7313814443
 30
0.0
 40
0.0150000000000002
100
AcDbArc
 50
270.0
 51
310.1261453322
  0
ARC
  5
73
330
1F
100
AcDbEntity
  8
0
  6
Continuous
 62
     7
370
    30
100
AcDbCircle
 10
5.627427043
 20
5.5949409681
 30
0.0
 40
0.1634404761904766
100
AcDbArc
 50
49.8738546678
 51
90.0
  0
ARC
  5
74
330
1F
100
AcDbEntity
  8
0
  6
Continuous
 62
     7
370
    30
100
AcDbCircle
 10
5.482427043
 20
5.5949409681
 30
0.0
 40
0.1634404761904766
100
AcDbArc
 50
90.0
 51
130.1261453322
  0
ARC
  5
75
330
1F
100
AcDbEntity
  8
0
  6
Continuous
 62
     7
370
    30
100
AcDbCircle
 10
5.388427043
 20
3.9677010679
 30
0.0
 40
0.0200000000000002
100
AcDbArc
 50
180.0
 51
241.8571552447
  0
ARC
  5
76
330
1F
100
AcDbEntity
  8
0
  6
Continuous
 62
     7
370
    30
100
AcDbCircle
 10
5.721427043
 20
3.9677010679
 30
0.0
 40
0.0199999999999998
100
AcDbArc
 50
298.1428447553
 51
0.0
  0
LINE
  5
77
330
1F
100
AcDbEntity
  8
0
  6
Continuous
 62
     7
370
    30
100
AcDbLine
 10
5.3684270322
 20
4.0159674448
 30
0.0
 11
5.3684270322
 21
3.9677010657
 31
0.0
  0
LINE
  5
78
330
1F
100
AcDbEntity
  8
0
  6
Continuous
 62
     7
370
    30
100
AcDbLine
 10
5.74142704
 20
3.9677010657
 30
0.0
 11
5.74142704
 21
4.0159674448
 31
0.0
  0
ARC
  5
79
330
1F
100
AcDbEntity
  8
0
  6
Continuous
 62
     7
370
    30
100
AcDbCircle
 10
5.554927043
 20
4.278967433
 30
0.0
 40
0.3729999999999996
100
AcDbArc
 50
277.6034084169
 51
298.1428447553
  0
ARC
  5
7A
330
1F
100
AcDbEntity
  8
0
  6
Continuous
 62
     7
370
    30
100
AcDbCircle
 10
5.554927043
 20
4.278967433
 30
0.0
 40
0.3730000000000004
100
AcDbArc
 50
241.8571552447
 51
262.3965915831
  0
LINE
  5
7B
330
1F
100
AcDbEntity
  8
0
  6
Continuous
 62
     7
370
    30
100
AcDbLine
 10
5.4599270186
 20
5.9048562742
 30
0.0
 11
5.4844270355
 21
5.8907111709
 31
0.0
  0
LINE
  5
7C
330
1F
100
AcDbEntity
  8
0
  6
Continuous
 62
     7
370
    30
100
AcDbLine
 10
5.6254270733
 20
5.8907111709
 30
0.0
 11
5.649927017
 21
5.9048562742
 31
0.0
  0
LINE
  5
7D
330
1F
100
AcDbEntity
  8
0
  6
Continuous
 62
     7
370
    30
100
AcDbLine
 10
5.649927017
 20
5.9048562742
 30
0.0
 11
5.6254270733
 21
5.9190013775
 31
0.0
  0
LINE
  5
7E
330
1F
100
AcDbEntity
  8
0
  6
Continuous
 62
     7
370
    30
100
AcDbLine
 10
5.4844270355
 20
5.9190013775
 30
0.0
 11
5.4599270186
 21
5.9048562742
 31
0.0
  0
LINE
  5
7F
330
1F
100
AcDbEntity
  8
0
  6
Continuous
 62
     7
370
    30
100
AcDbLine
 10
5.649927017
 20
5.5159674267
 30
0.0
 11
5.6254270733
 21
5.5301125299
 31
0.0
  0
LINE
  5
80
330
1F
100
AcDbEntity
  8
0
  6
Continuous
 62
     7
370
    30
100
AcDbLine
 10
5.4844270355
 20
5.5301125299
 30
0.0
 11
5.4599270186
 21
5.5159674267
 31
0.0
  0
LINE
  5
81
330
1F
100
AcDbEntity
  8
0
  6
Continuous
 62
     7
370
    30
100
AcDbLine
 10
5.4599270186
 20
5.5159674267
 30
0.0
 11
5.4844270355
 21
5.5018223234
 31
0.0
  0
LINE
  5
82
330
1F
100
AcDbEntity
  8
0
  6
Continuous
 62
     7
370
    30
100
AcDbLine
 10
5.6254270733
 20
5.5018223234
 30
0.0
 11
5.649927017
 21
5.5159674267
 31
0.0
  0
LINE
  5
83
330
1F
100
AcDbEntity
  8
0
  6
Continuous
 62
     7
370
    30
100
AcDbLine
 10
5.4599270186
 20
6.2381896768
 30
0.0
 11
5.4844270355
 21
6.2240445736
 31
0.0
  0
LINE
  5
84
330
1F
100
AcDbEntity
  8
0
  6
Continuous
 62
     7
370
    30
100
AcDbLine
 10
5.6254270733
 20
6.2240445736
 30
0.0
 11
5.649927017
 21
6.2381896768
 31
0.0
  0
LINE
  5
85
330
1F
100
AcDbEntity
  8
0
  6
Continuous
 62
     7
370
    30
100
AcDbLine
 10
5.4599270186
 20
6.1270784937
 30
0.0
 11
5.4844270355
 21
6.1129333905
 31
0.0
  0
LINE
  5
86
330
1F
100
AcDbEntity
  8
0
  6
Continuous
 62
     7
370
    30
100
AcDbLine
 10
5.6254270733
 20
6.1129333905
 30
0.0
 11
5.649927017
 21
6.1270784937
 31
0.0
  0
LINE
  5
87
330
1F
100
AcDbEntity
  8
0
  6
Continuous
 62
     7
370
    30
100
AcDbLine
 10
5.649927017
 20
6.1270784937
 30
0.0
 11
5.6254270733
 21
6.141223597
 31
0.0
  0
LINE
  5
88
330
1F
100
AcDbEntity
  8
0
  6
Continuous
 62
     7
370
    30
100
AcDbLine
 10
5.4844270355
 20
6.141223597
 30
0.0
 11
5.4599270186
 21
6.1270784937
 31
0.0
  0
LINE
  5
89
330
1F
100
AcDbEntity
  8
0
  6
Continuous
 62
     7
370
    30
100
AcDbLine
 10
5.649927017
 20
6.2381896768
 30
0.0
 11
5.6254270733
 21
6.2523347801
 31
0.0
  0
LINE
  5
8A
330
1F
100
AcDbEntity
  8
0
  6
Continuous
 62
     7
370
    30
100
AcDbLine
 10
5.4844270355
 20
6.2523347801
 30
0.0
 11
5.4599270186
 21
6.2381896768
 31
0.0
  0
LINE
  5
8B
330
1F
100
AcDbEntity
  8
0
  6
Continuous
 62
     7
370
    30
100
AcDbLine
 10
5.649927017
 20
5.4604119085
 30
0.0
 11
5.6254270733
 21
5.4745569384
 31
0.0
  0
LINE
  5
8C
330
1F
100
AcDbEntity
  8
0
  6
Continuous
 62
     7
370
    30
100
AcDbLine
 10
5.4844270355
 20
5.4745569384
 30
0.0
 11
5.4599270186
 21
5.4604119085
 31
0.0
  0
LINE
  5
8D
330
1F
100
AcDbEntity
  8
0
  6
Continuous
 62
     7
370
    30
100
AcDbLine
 10
5.649927017
 20
6.0715229755
 30
0.0
 11
5.6254270733
 21
6.0856680788
 31
0.0
  0
LINE
  5
8E
330
1F
100
AcDbEntity
  8
0
  6
Continuous
 62
     7
370
    30
100
AcDbLine
 10
5.4844270355
 20
6.0856680788
 30
0.0
 11
5.4599270186
 21
6.0715229755
 31
0.0
  0
LINE
  5
8F
330
1F
100
AcDbEntity
  8
0
  6
Continuous
 62
     7
370
    30
100
AcDbLine
 10
5.4599270186
 20
5.5715230182
 30
0.0
 11
5.4844270355
 21
5.557377915
 31
0.0
  0
LINE
  5
90
330
1F
100
AcDbEntity
  8
0
  6
Continuous
 62
     7
370
    30
100
AcDbLine
 10
5.6254270733
 20
5.557377915
 30
0.0
 11
5.649927017
 21
5.5715230182
 31
0.0
  0
LINE
  5
91
330
1F
100
AcDbEntity
  8
0
  6
Continuous
 62
     7
370
    30
100
AcDbLine
 10
5.4599270186
 20
5.4604119085
 30
0.0
 11
5.4844270355
 21
5.4462668052
 31
0.0
  0
LINE
  5
92
330
1F
100
AcDbEntity
  8
0
  6
Continuous
 62
     7
370
    30
100
AcDbLine
 10
5.6254270733
 20
5.4462668052
 30
0.0
 11
5.649927017
 21
5.4604119085
 31
0.0
  0
LINE
  5
93
330
1F
100
AcDbEntity
  8
0
  6
Continuous
 62
     7
370
    30
100
AcDbLine
 10
5.649927017
 20
5.4048563169
 30
0.0
 11
5.6254270733
 21
5.4190014202
 31
0.0
  0
LINE
  5
94
330
1F
100
AcDbEntity
  8
0
  6
Continuous
 62
     7
370
    30
100
AcDbLine
 10
5.4844270355
 20
5.4190014202
 30
0.0
 11
5.4599270186
 21
5.4048563169
 31
0.0
  0
LINE
  5
95
330
1F
100
AcDbEntity
  8
0
  6
Continuous
 62
     7
370
    30
100
AcDbLine
 10
5.4599270186
 20
5.4048563169
 30
0.0
 11
5.4844270355
 21
5.3907112136
 31
0.0
  0
LINE
  5
96
330
1F
100
AcDbEntity
  8
0
  6
Continuous
 62
     7
370
    30
100
AcDbLine
 10
5.6254270733
 20
5.3907112136
 30
0.0
 11
5.649927017
 21
5.4048563169
 31
0.0
  0
LINE
  5
97
330
1F
100
AcDbEntity
  8
0
  6
Continuous
 62
     7
370
    30
100
AcDbLine
 10
5.4599270186
 20
5.9604119391
 30
0.0
 11
5.4844270355
 21
5.9462668358
 31
0.0
  0
LINE
  5
98
330
1F
100
AcDbEntity
  8
0
  6
Continuous
 62
     7
370
    30
100
AcDbLine
 10
5.6254270733
 20
5.9462668358
 30
0.0
 11
5.649927017
 21
5.9604119391
 31
0.0
  0
LINE
  5
99
330
1F
100
AcDbEntity
  8
0
  6
Continuous
 62
     7
370
    30
100
AcDbLine
 10
5.649927017
 20
5.9604119391
 30
0.0
 11
5.6254270733
 21
5.9745568957
 31
0.0
  0
LINE
  5
9A
330
1F
100
AcDbEntity
  8
0
  6
Continuous
 62
     7
370
    30
100
AcDbLine
 10
5.4844270355
 20
5.9745568957
 30
0.0
 11
5.4599270186
 21
5.9604119391
 31
0.0
  0
LINE
  5
9B
330
1F
100
AcDbEntity
  8
0
  6
Continuous
 62
     7
370
    30
100
AcDbLine
 10
5.649927017
 20
6.2937451951
 30
0.0
 11
5.6254270733
 21
6.3078902983
 31
0.0
  0
LINE
  5
9C
330
1F
100
AcDbEntity
  8
0
  6
Continuous
 62
     7
370
    30
100
AcDbLine
 10
5.4844270355
 20
6.3078902983
 30
0.0
 11
5.4599270186
 21
6.2937451951
 31
0.0
  0
LINE
  5
9D
330
1F
100
AcDbEntity
  8
0
  6
Continuous
 62
     7
370
    30
100
AcDbLine
 10
5.4599270186
 20
6.0715229755
 30
0.0
 11
5.4844270355
 21
6.0573778723
 31
0.0
  0
LINE
  5
9E
330
1F
100
AcDbEntity
  8
0
  6
Continuous
 62
     7
370
    30
100
AcDbLine
 10
5.6254270733
 20
6.0573778723
 30
0.0
 11
5.649927017
 21
6.0715229755
 31
0.0
  0
LINE
  5
9F
330
1F
100
AcDbEntity
  8
0
  6
Continuous
 62
     7
370
    30
100
AcDbLine
 10
5.649927017
 20
5.5715230182
 30
0.0
 11
5.6254270733
 21
5.5856680482
 31
0.0
  0
LINE
  5
A0
330
1F
100
AcDbEntity
  8
0
  6
Continuous
 62
     7
370
    30
100
AcDbLine
 10
5.4844270355
 20
5.5856680482
 30
0.0
 11
5.4599270186
 21
5.5715230182
 31
0.0
  0
LINE
  5
A1
330
1F
100
AcDbEntity
  8
0
  6
Continuous
 62
     7
370
    30
100
AcDbLine
 10
5.649927017
 20
5.6270785364
 30
0.0
 11
5.6254270733
 21
5.6412236397
 31
0.0
  0
LINE
  5
A2
330
1F
100
AcDbEntity
  8
0
  6
Continuous
 62
     7
370
    30
100
AcDbLine
 10
5.4844270355
 20
5.6412236397
 30
0.0
 11
5.4599270186
 21
5.6270785364
 31
0.0
  0
LINE
  5
A3
330
1F
100
AcDbEntity
  8
0
  6
Continuous
 62
     7
370
    30
100
AcDbLine
 10
5.4599270186
 20
5.6270785364
 30
0.0
 11
5.4844270355
 21
5.6129334332
 31
0.0
  0
LINE
  5
A4
330
1F
100
AcDbEntity
  8
0
  6
Continuous
 62
     7
370
    30
100
AcDbLine
 10
5.6254270733
 20
5.6129334332
 30
0.0
 11
5.649927017
 21
5.6270785364
 31
0.0
  0
LINE
  5
A5
330
1F
100
AcDbEntity
  8
0
  6
Continuous
 62
     7
370
    30
100
AcDbLine
 10
5.4599270186
 20
6.2937451951
 30
0.0
 11
5.4844270355
 21
6.2796000918
 31
0.0
  0
LINE
  5
A6
330
1F
100
AcDbEntity
  8
0
  6
Continuous
 62
     7
370
    30
100
AcDbLine
 10
5.6254270733
 20
6.2796000918
 30
0.0
 11
5.649927017
 21
6.2937451951
 31
0.0
  0
LINE
  5
A7
330
1F
100
AcDbEntity
  8
0
  6
Continuous
 62
     7
370
    30
100
AcDbLine
 10
5.4599270186
 20
5.1826340974
 30
0.0
 11
5.4844270355
 21
5.1684889941
 31
0.0
  0
LINE
  5
A8
330
1F
100
AcDbEntity
  8
0
  6
Continuous
 62
     7
370
    30
100
AcDbLine
 10
5.6254270733
 20
5.1684889941
 30
0.0
 11
5.649927017
 21
5.1826340974
 31
0.0
  0
LINE
  5
A9
330
1F
100
AcDbEntity
  8
0
  6
Continuous
 62
     7
370
    30
100
AcDbLine
 10
5.4599270186
 20
6.1826341586
 30
0.0
 11
5.4844270355
 21
6.1684890554
 31
0.0
  0
LINE
  5
AA
330
1F
100
AcDbEntity
  8
0
  6
Continuous
 62
     7
370
    30
100
AcDbLine
 10
5.6254270733
 20
6.1684890554
 30
0.0
 11
5.649927017
 21
6.1826341586
 31
0.0
  0
LINE
  5
AB
330
1F
100
AcDbEntity
  8
0
  6
Continuous
 62
     7
370
    30
100
AcDbLine
 10
5.4707569801
 20
5.6763814336
 30
0.0
 11
5.4844270355
 21
5.6684889514
 31
0.0
  0
LINE
  5
AC
330
1F
100
AcDbEntity
  8
0
  6
Continuous
 62
     7
370
    30
100
AcDbLine
 10
5.6254270733
 20
5.6684889514
 30
0.0
 11
5.6390971288
 21
5.6763814336
 31
0.0
  0
LINE
  5
AD
330
1F
100
AcDbEntity
  8
0
  6
Continuous
 62
     7
370
    30
100
AcDbLine
 10
5.649927017
 20
6.1826341586
 30
0.0
 11
5.6254270733
 21
6.1967791152
 31
0.0
  0
LINE
  5
AE
330
1F
100
AcDbEntity
  8
0
  6
Continuous
 62
     7
370
    30
100
AcDbLine
 10
5.4844270355
 20
6.1967791152
 30
0.0
 11
5.4599270186
 21
6.1826341586
 31
0.0
  0
LINE
  5
AF
330
1F
100
AcDbEntity
  8
0
  6
Continuous
 62
     7
370
    30
100
AcDbLine
 10
5.649927017
 20
5.1826340974
 30
0.0
 11
5.6254270733
 21
5.1967792006
 31
0.0
  0
LINE
  5
B0
330
1F
100
AcDbEntity
  8
0
  6
Continuous
 62
     7
370
    30
100
AcDbLine
 10
5.4844270355
 20
5.1967792006
 30
0.0
 11
5.4599270186
 21
5.1826340974
 31
0.0
  0
LINE
  5
B1
330
1F
100
AcDbEntity
  8
0
  6
Continuous
 62
     7
370
    30
100
AcDbLine
 10
5.4824436851
 20
4.5029674314
 30
0.0
 11
5.4844270355
 21
4.5018223538
 31
0.0
  0
LINE
  5
B2
330
1F
100
AcDbEntity
  8
0
  6
Continuous
 62
     7
370
    30
100
AcDbLine
 10
5.6254270733
 20
4.5018223538
 30
0.0
 11
5.6274103504
 21
4.5029674314
 31
0.0
  0
LINE
  5
B3
330
1F
100
AcDbEntity
  8
0
  6
Continuous
 62
     7
370
    30
100
AcDbLine
 10
5.649927017
 20
6.0159674573
 30
0.0
 11
5.6254270733
 21
6.0301125606
 31
0.0
  0
LINE
  5
B4
330
1F
100
AcDbEntity
  8
0
  6
Continuous
 62
     7
370
    30
100
AcDbLine
 10
5.4844270355
 20
6.0301125606
 30
0.0
 11
5.4599270186
 21
6.0159674573
 31
0.0
  0
LINE
  5
B5
330
1F
100
AcDbEntity
  8
0
  6
Continuous
 62
     7
370
    30
100
AcDbLine
 10
5.649927017
 20
5.849300756
 30
0.0
 11
5.6254270733
 21
5.8634458592
 31
0.0
  0
LINE
  5
B6
330
1F
100
AcDbEntity
  8
0
  6
Continuous
 62
     7
370
    30
100
AcDbLine
 10
5.4844270355
 20
5.8634458592
 30
0.0
 11
5.4599270186
 21
5.849300756
 31
0.0
  0
LINE
  5
B7
330
1F
100
AcDbEntity
  8
0
  6
Continuous
 62
     7
370
    30
100
AcDbLine
 10
5.649927017
 20
5.7937452378
 30
0.0
 11
5.6254270733
 21
5.807890341
 31
0.0
  0
LINE
  5
B8
330
1F
100
AcDbEntity
  8
0
  6
Continuous
 62
     7
370
    30
100
AcDbLine
 10
5.4844270355
 20
5.807890341
 30
0.0
 11
5.4599270186
 21
5.7937452378
 31
0.0
  0
LINE
  5
B9
330
1F
100
AcDbEntity
  8
0
  6
Continuous
 62
     7
370
    30
100
AcDbLine
 10
5.4599270186
 20
5.849300756
 30
0.0
 11
5.4844270355
 21
5.8351556527
 31
0.0
  0
LINE
  5
BA
330
1F
100
AcDbEntity
  8
0
  6
Continuous
 62
     7
370
    30
100
AcDbLine
 10
5.6254270733
 20
5.8351556527
 30
0.0
 11
5.649927017
 21
5.849300756
 31
0.0
  0
LINE
  5
BB
330
1F
100
AcDbEntity
  8
0
  6
Continuous
 62
     7
370
    30
100
AcDbLine
 10
5.4599270186
 20
5.7937452378
 30
0.0
 11
5.4844270355
 21
5.7796001345
 31
0.0
  0
LINE
  5
BC
330
1F
100
AcDbEntity
  8
0
  6
Continuous
 62
     7
370
    30
100
AcDbLine
 10
5.6254270733
 20
5.7796001345
 30
0.0
 11
5.649927017
 21
5.7937452378
 31
0.0
  0
LINE
  5
BD
330
1F
100
AcDbEntity
  8
0
  6
Continuous
 62
     7
370
    30
100
AcDbLine
 10
5.4599270186
 20
6.0159674573
 30
0.0
 11
5.4844270355
 21
6.001822354
 31
0.0
  0
LINE
  5
BE
330
1F
100
AcDbEntity
  8
0
  6
Continuous
 62
     7
370
    30
100
AcDbLine
 10
5.6254270733
 20
6.001822354
 30
0.0
 11
5.649927017
 21
6.0159674573
 31
0.0
  0
LINE
  5
BF
330
1F
100
AcDbEntity
  8
0
  6
Continuous
 62
     7
370
    30
100
AcDbLine
 10
5.4599270186
 20
5.2381896889
 30
0.0
 11
5.4844270355
 21
5.2240445857
 31
0.0
  0
LINE
  5
C0
330
1F
100
AcDbEntity
  8
0
  6
Continuous
 62
     7
370
    30
100
AcDbLine
 10
5.6254270733
 20
5.2240445857
 30
0.0
 11
5.649927017
 21
5.2381896889
 31
0.0
  0
LINE
  5
C1
330
1F
100
AcDbEntity
  8
0
  6
Continuous
 62
     7
370
    30
100
AcDbLine
 10
5.649927017
 20
5.2381896889
 30
0.0
 11
5.6254270733
 21
5.2523347189
 31
0.0
  0
LINE
  5
C2
330
1F
100
AcDbEntity
  8
0
  6
Continuous
 62
     7
370
    30
100
AcDbLine
 10
5.4844270355
 20
5.2523347189
 30
0.0
 11
5.4599270186
 21
5.2381896889
 31
0.0
  0
LINE
  5
C3
330
1F
100
AcDbEntity
  8
0
  6
Continuous
 62
     7
370
    30
100
AcDbLine
 10
5.649927017
 20
4.1270785362
 30
0.0
 11
5.6254270733
 21
4.1412236212
 31
0.0
  0
LINE
  5
C4
330
1F
100
AcDbEntity
  8
0
  6
Continuous
 62
     7
370
    30
100
AcDbLine
 10
5.4844270355
 20
4.1412236212
 30
0.0
 11
5.4599270186
 21
4.1270785362
 31
0.0
  0
LINE
  5
C5
330
1F
100
AcDbEntity
  8
0
  6
Continuous
 62
     7
370
    30
100
AcDbLine
 10
5.4599270186
 20
4.1270785362
 30
0.0
 11
5.4844270355
 21
4.1129334696
 31
0.0
  0
LINE
  5
C6
330
1F
100
AcDbEntity
  8
0
  6
Continuous
 62
     7
370
    30
100
AcDbLine
 10
5.6254270733
 20
4.1129334696
 30
0.0
 11
5.649927017
 21
4.1270785362
 31
0.0
  0
LINE
  5
C7
330
1F
100
AcDbEntity
  8
0
  6
Continuous
 62
     7
370
    30
100
AcDbLine
 10
5.6416122864
 20
4.0763235276
 30
0.0
 11
5.6254270733
 21
4.0856680663
 31
0.0
  0
LINE
  5
C8
330
1F
100
AcDbEntity
  8
0
  6
Continuous
 62
     7
370
    30
100
AcDbLine
 10
5.4844270355
 20
4.0856680663
 30
0.0
 11
5.4682418225
 21
4.0763235276
 31
0.0
  0
LINE
  5
C9
330
1F
100
AcDbEntity
  8
0
  6
Continuous
 62
     7
370
    30
100
AcDbLine
 10
5.4609968662
 20
4.237571994
 30
0.0
 11
5.4844270355
 21
4.2240445794
 31
0.0
  0
LINE
  5
CA
330
1F
100
AcDbEntity
  8
0
  6
Continuous
 62
     7
370
    30
100
AcDbLine
 10
5.6254270733
 20
4.2240445794
 30
0.0
 11
5.6358071401
 21
4.2300375302
 31
0.0
  0
LINE
  5
CB
330
1F
100
AcDbEntity
  8
0
  6
Continuous
 62
     7
370
    30
100
AcDbLine
 10
5.4599270186
 20
5.2937452071
 30
0.0
 11
5.4844270355
 21
5.2796001039
 31
0.0
  0
LINE
  5
CC
330
1F
100
AcDbEntity
  8
0
  6
Continuous
 62
     7
370
    30
100
AcDbLine
 10
5.6254270733
 20
5.2796001039
 30
0.0
 11
5.649927017
 21
5.2937452071
 31
0.0
  0
LINE
  5
CD
330
1F
100
AcDbEntity
  8
0
  6
Continuous
 62
     7
370
    30
100
AcDbLine
 10
5.649927017
 20
5.2937452071
 30
0.0
 11
5.6254270733
 21
5.3078903104
 31
0.0
  0
LINE
  5
CE
330
1F
100
AcDbEntity
  8
0
  6
Continuous
 62
     7
370
    30
100
AcDbLine
 10
5.4844270355
 20
5.3078903104
 30
0.0
 11
5.4599270186
 21
5.2937452071
 31
0.0
  0
LINE
  5
CF
330
1F
100
AcDbEntity
  8
0
  6
Continuous
 62
     7
370
    30
100
AcDbLine
 10
5.6375754797
 20
4.245320827
 30
0.0
 11
5.6254270733
 21
4.2523347401
 31
0.0
  0
LINE
  5
D0
330
1F
100
AcDbEntity
  8
0
  6
Continuous
 62
     7
370
    30
100
AcDbLine
 10
5.4844270355
 20
4.2523347401
 30
0.0
 11
5.481357191
 21
4.2505623764
 31
0.0
  0
LINE
  5
D1
330
1F
100
AcDbEntity
  8
0
  6
Continuous
 62
     7
370
    30
100
AcDbLine
 10
5.6488881157
 20
4.1832339325
 30
0.0
 11
5.6254270733
 21
4.1967791761
 31
0.0
  0
LINE
  5
D2
330
1F
100
AcDbEntity
  8
0
  6
Continuous
 62
     7
370
    30
100
AcDbLine
 10
5.4844270355
 20
4.1967791761
 30
0.0
 11
5.4731099996
 21
4.1902452699
 31
0.0
  0
LINE
  5
D3
330
1F
100
AcDbEntity
  8
0
  6
Continuous
 62
     7
370
    30
100
AcDbLine
 10
5.4732464713
 20
4.174944135
 30
0.0
 11
5.4844270355
 21
4.1684890245
 31
0.0
  0
LINE
  5
D4
330
1F
100
AcDbEntity
  8
0
  6
Continuous
 62
     7
370
    30
100
AcDbLine
 10
5.6254270733
 20
4.1684890245
 30
0.0
 11
5.6488881157
 21
4.1820342681
 31
0.0
  0
LINE
  5
D5
330
1F
100
AcDbEntity
  8
0
  6
Continuous
 62
     7
370
    30
100
AcDbLine
 10
5.649927017
 20
5.3493007987
 30
0.0
 11
5.6254270733
 21
5.3634458286
 31
0.0
  0
LINE
  5
D6
330
1F
100
AcDbEntity
  8
0
  6
Continuous
 62
     7
370
    30
100
AcDbLine
 10
5.4844270355
 20
5.3634458286
 30
0.0
 11
5.4599270186
 21
5.3493007987
 31
0.0
  0
LINE
  5
D7
330
1F
100
AcDbEntity
  8
0
  6
Continuous
 62
     7
370
    30
100
AcDbLine
 10
5.4599270186
 20
5.3493007987
 30
0.0
 11
5.4844270355
 21
5.3351556954
 31
0.0
  0
LINE
  5
D8
330
1F
100
AcDbEntity
  8
0
  6
Continuous
 62
     7
370
    30
100
AcDbLine
 10
5.6254270733
 20
5.3351556954
 30
0.0
 11
5.649927017
 21
5.3493007987
 31
0.0
  0
LINE
  5
D9
330
1F
100
AcDbEntity
  8
0
  6
Continuous
 62
     7
370
    30
100
AcDbLine
 10
5.4599270186
 20
4.4604118747
 30
0.0
 11
5.4844270355
 21
4.4462667944
 31
0.0
  0
LINE
  5
DA
330
1F
100
AcDbEntity
  8
0
  6
Continuous
 62
     7
370
    30
100
AcDbLine
 10
5.6254270733
 20
4.4462667944
 30
0.0
 11
5.649927017
 21
4.4604118747
 31
0.0
  0
LINE
  5
DB
330
1F
100
AcDbEntity
  8
0
  6
Continuous
 62
     7
370
    30
100
AcDbLine
 10
5.4650621259
 20
4.3463360288
 30
0.0
 11
5.4844270355
 21
4.3351556846
 31
0.0
  0
LINE
  5
DC
330
1F
100
AcDbEntity
  8
0
  6
Continuous
 62
     7
370
    30
100
AcDbLine
 10
5.6254270733
 20
4.3351556846
 30
0.0
 11
5.6310952345
 21
4.3384282201
 31
0.0
  0
LINE
  5
DD
330
1F
100
AcDbEntity
  8
0
  6
Continuous
 62
     7
370
    30
100
AcDbLine
 10
5.649927017
 20
4.4604118747
 30
0.0
 11
5.6254270733
 21
4.4745569596
 31
0.0
  0
LINE
  5
DE
330
1F
100
AcDbEntity
  8
0
  6
Continuous
 62
     7
370
    30
100
AcDbLine
 10
5.4844270355
 20
4.4745569596
 30
0.0
 11
5.4599270186
 21
4.4604118747
 31
0.0
  0
LINE
  5
DF
330
1F
100
AcDbEntity
  8
0
  6
Continuous
 62
     7
370
    30
100
AcDbLine
 10
5.6285277175
 20
4.3061000978
 30
0.0
 11
5.6254270733
 21
4.3078902904
 31
0.0
  0
LINE
  5
E0
330
1F
100
AcDbEntity
  8
0
  6
Continuous
 62
     7
370
    30
100
AcDbLine
 10
5.4844270355
 20
4.3078902904
 30
0.0
 11
5.468398094
 21
4.2986359552
 31
0.0
  0
LINE
  5
E1
330
1F
100
AcDbEntity
  8
0
  6
Continuous
 62
     7
370
    30
100
AcDbLine
 10
5.4599270186
 20
5.1270785792
 30
0.0
 11
5.4844270355
 21
5.1129334759
 31
0.0
  0
LINE
  5
E2
330
1F
100
AcDbEntity
  8
0
  6
Continuous
 62
     7
370
    30
100
AcDbLine
 10
5.6254270733
 20
5.1129334759
 30
0.0
 11
5.649927017
 21
5.1270785792
 31
0.0
  0
LINE
  5
E3
330
1F
100
AcDbEntity
  8
0
  6
Continuous
 62
     7
370
    30
100
AcDbLine
 10
5.6422873852
 20
4.3537115169
 30
0.0
 11
5.6254270733
 21
4.3634458476
 31
0.0
  0
LINE
  5
E4
330
1F
100
AcDbEntity
  8
0
  6
Continuous
 62
     7
370
    30
100
AcDbLine
 10
5.4844270355
 20
4.3634458476
 30
0.0
 11
5.4812942717
 21
4.3616371568
 31
0.0
  0
LINE
  5
E5
330
1F
100
AcDbEntity
  8
0
  6
Continuous
 62
     7
370
    30
100
AcDbLine
 10
5.4779583769
 20
4.2833348295
 30
0.0
 11
5.4844270355
 21
4.2796001251
 31
0.0
  0
LINE
  5
E6
330
1F
100
AcDbEntity
  8
0
  6
Continuous
 62
     7
370
    30
100
AcDbLine
 10
5.6254270733
 20
4.2796001251
 30
0.0
 11
5.6487033911
 21
4.2930387341
 31
0.0
  0
LINE
  5
E7
330
1F
100
AcDbEntity
  8
0
  6
Continuous
 62
     7
370
    30
100
AcDbLine
 10
5.649927017
 20
5.1270785792
 30
0.0
 11
5.6254270733
 21
5.1412236091
 31
0.0
  0
LINE
  5
E8
330
1F
100
AcDbEntity
  8
0
  6
Continuous
 62
     7
370
    30
100
AcDbLine
 10
5.4844270355
 20
5.1412236091
 30
0.0
 11
5.4599270186
 21
5.1270785792
 31
0.0
  0
LINE
  5
E9
330
1F
100
AcDbEntity
  8
0
  6
Continuous
 62
     7
370
    30
100
AcDbLine
 10
5.4599270186
 20
4.4048563221
 30
0.0
 11
5.4844270355
 21
4.3907112406
 31
0.0
  0
LINE
  5
EA
330
1F
100
AcDbEntity
  8
0
  6
Continuous
 62
     7
370
    30
100
AcDbLine
 10
5.6254270733
 20
4.3907112406
 30
0.0
 11
5.649927017
 21
4.4048563221
 31
0.0
  0
LINE
  5
EB
330
1F
100
AcDbEntity
  8
0
  6
Continuous
 62
     7
370
    30
100
AcDbLine
 10
5.649927017
 20
4.4048563221
 30
0.0
 11
5.6254270733
 21
4.4190014048
 31
0.0
  0
LINE
  5
EC
330
1F
100
AcDbEntity
  8
0
  6
Continuous
 62
     7
370
    30
100
AcDbLine
 10
5.4844270355
 20
4.4190014048
 30
0.0
 11
5.4599270186
 21
4.4048563221
 31
0.0
  0
LINE
  5
ED
330
1F
100
AcDbEntity
  8
0
  6
Continuous
 62
     7
370
    30
100
AcDbLine
 10
5.6254270733
 20
5.3634458286
 30
0.0
 11
5.6254270733
 21
5.3907112136
 31
0.0
  0
LINE
  5
EE
330
1F
100
AcDbEntity
  8
0
  6
Continuous
 62
     7
370
    30
100
AcDbLine
 10
5.4844270355
 20
5.3907112136
 30
0.0
 11
5.4844270355
 21
5.3634458286
 31
0.0
  0
LINE
  5
EF
330
1F
100
AcDbEntity
  8
0
  6
Continuous
 62
     7
370
    30
100
AcDbLine
 10
5.6254270733
 20
5.8634458592
 30
0.0
 11
5.6254270733
 21
5.8907111709
 31
0.0
  0
LINE
  5
F0
330
1F
100
AcDbEntity
  8
0
  6
Continuous
 62
     7
370
    30
100
AcDbLine
 10
5.4844270355
 20
5.8907111709
 30
0.0
 11
5.4844270355
 21
5.8634458592
 31
0.0
  0
LINE
  5
F1
330
1F
100
AcDbEntity
  8
0
  6
Continuous
 62
     7
370
    30
100
AcDbLine
 10
5.6254270733
 20
5.9190013775
 30
0.0
 11
5.6254270733
 21
5.9462668358
 31
0.0
  0
LINE
  5
F2
330
1F
100
AcDbEntity
  8
0
  6
Continuous
 62
     7
370
    30
100
AcDbLine
 10
5.4844270355
 20
5.9462668358
 30
0.0
 11
5.4844270355
 21
5.9190013775
 31
0.0
  0
LINE
  5
F3
330
1F
100
AcDbEntity
  8
0
  6
Continuous
 62
     7
370
    30
100
AcDbLine
 10
5.6254270733
 20
5.1967792006
 30
0.0
 11
5.6254270733
 21
5.2240445857
 31
0.0
  0
LINE
  5
F4
330
1F
100
AcDbEntity
  8
0
  6
Continuous
 62
     7
370
    30
100
AcDbLine
 10
5.4844270355
 20
5.2240445857
 30
0.0
 11
5.4844270355
 21
5.1967792006
 31
0.0
  0
LINE
  5
F5
330
1F
100
AcDbEntity
  8
0
  6
Continuous
 62
     7
370
    30
100
AcDbLine
 10
5.6254270733
 20
5.4190014202
 30
0.0
 11
5.6254270733
 21
5.4462668052
 31
0.0
  0
LINE
  5
F6
330
1F
100
AcDbEntity
  8
0
  6
Continuous
 62
     7
370
    30
100
AcDbLine
 10
5.4844270355
 20
5.4462668052
 30
0.0
 11
5.4844270355
 21
5.4190014202
 31
0.0
  0
LINE
  5
F7
330
1F
100
AcDbEntity
  8
0
  6
Continuous
 62
     7
370
    30
100
AcDbLine
 10
5.6254270733
 20
5.5856680482
 30
0.0
 11
5.6254270733
 21
5.6129334332
 31
0.0
  0
LINE
  5
F8
330
1F
100
AcDbEntity
  8
0
  6
Continuous
 62
     7
370
    30
100
AcDbLine
 10
5.4844270355
 20
5.6129334332
 30
0.0
 11
5.4844270355
 21
5.5856680482
 31
0.0
  0
LINE
  5
F9
330
1F
100
AcDbEntity
  8
0
  6
Continuous
 62
     7
370
    30
100
AcDbLine
 10
5.6254270733
 20
6.3078902983
 30
0.0
 11
5.6254270733
 21
6.3457653541
 31
0.0
  0
LINE
  5
FA
330
1F
100
AcDbEntity
  8
0
  6
Continuous
 62
     7
370
    30
100
AcDbLine
 10
5.4844270355
 20
6.3457653541
 30
0.0
 11
5.4844270355
 21
6.3078902983
 31
0.0
  0
LINE
  5
FB
330
1F
100
AcDbEntity
  8
0
  6
Continuous
 62
     7
370
    30
100
AcDbLine
 10
5.6254270733
 20
6.3457653541
 30
0.0
 11
5.5549270544
 21
6.5159674146
 31
0.0
  0
LINE
  5
FC
330
1F
100
AcDbEntity
  8
0
  6
Continuous
 62
     7
370
    30
100
AcDbLine
 10
5.5549270544
 20
6.5159674146
 30
0.0
 11
5.4844270355
 21
6.3457653541
 31
0.0
  0
LINE
  5
FD
330
1F
100
AcDbEntity
  8
0
  6
Continuous
 62
     7
370
    30
100
AcDbLine
 10
5.6254270733
 20
5.5301125299
 30
0.0
 11
5.6254270733
 21
5.557377915
 31
0.0
  0
LINE
  5
FE
330
1F
100
AcDbEntity
  8
0
  6
Continuous
 62
     7
370
    30
100
AcDbLine
 10
5.4844270355
 20
5.557377915
 30
0.0
 11
5.4844270355
 21
5.5301125299
 31
0.0
  0
LINE
  5
FF
330
1F
100
AcDbEntity
  8
0
  6
Continuous
 62
     7
370
    30
100
AcDbLine
 10
5.6254270733
 20
5.2523347189
 30
0.0
 11
5.6254270733
 21
5.2796001039
 31
0.0
  0
LINE
  5
100
330
1F
100
AcDbEntity
  8
0
  6
Continuous
 62
     7
370
    30
100
AcDbLine
 10
5.4844270355
 20
5.2796001039
 30
0.0
 11
5.4844270355
 21
5.2523347189
 31
0.0
  0
LINE
  5
101
330
1F
100
AcDbEntity
  8
0
  6
Continuous
 62
     7
370
    30
100
AcDbLine
 10
5.6254270733
 20
6.0301125606
 30
0.0
 11
5.6254270733
 21
6.0573778723
 31
0.0
  0
LINE
  5
102
330
1F
100
AcDbEntity
  8
0
  6
Continuous
 62
     7
370
    30
100
AcDbLine
 10
5.4844270355
 20
6.0573778723
 30
0.0
 11
5.4844270355
 21
6.0301125606
 31
0.0
  0
LINE
  5
103
330
1F
100
AcDbEntity
  8
0
  6
Continuous
 62
     7
370
    30
100
AcDbLine
 10
5.6254270733
 20
5.9745568957
 30
0.0
 11
5.6254270733
 21
6.001822354
 31
0.0
  0
LINE
  5
104
330
1F
100
AcDbEntity
  8
0
  6
Continuous
 62
     7
370
    30
100
AcDbLine
 10
5.4844270355
 20
6.001822354
 30
0.0
 11
5.4844270355
 21
5.9745568957
 31
0.0
  0
LINE
  5
105
330
1F
100
AcDbEntity
  8
0
  6
Continuous
 62
     7
370
    30
100
AcDbLine
 10
5.6254270733
 20
5.7583813796
 30
0.0
 11
5.6254270733
 21
5.7796001345
 31
0.0
  0
LINE
  5
106
330
1F
100
AcDbEntity
  8
0
  6
Continuous
 62
     7
370
    30
100
AcDbLine
 10
5.4844270355
 20
5.7796001345
 30
0.0
 11
5.4844270355
 21
5.7583813796
 31
0.0
  0
LINE
  5
107
330
1F
100
AcDbEntity
  8
0
  6
Continuous
 62
     7
370
    30
100
AcDbLine
 10
5.6254270733
 20
6.2523347801
 30
0.0
 11
5.6254270733
 21
6.2796000918
 31
0.0
  0
LINE
  5
108
330
1F
100
AcDbEntity
  8
0
  6
Continuous
 62
     7
370
    30
100
AcDbLine
 10
5.4844270355
 20
6.2796000918
 30
0.0
 11
5.4844270355
 21
6.2523347801
 31
0.0
  0
LINE
  5
109
330
1F
100
AcDbEntity
  8
0
  6
Continuous
 62
     7
370
    30
100
AcDbLine
 10
5.6254270733
 20
5.6412236397
 30
0.0
 11
5.6254270733
 21
5.6684889514
 31
0.0
  0
LINE
  5
10A
330
1F
100
AcDbEntity
  8
0
  6
Continuous
 62
     7
370
    30
100
AcDbLine
 10
5.4844270355
 20
5.6684889514
 30
0.0
 11
5.4844270355
 21
5.6412236397
 31
0.0
  0
LINE
  5
10B
330
1F
100
AcDbEntity
  8
0
  6
Continuous
 62
     7
370
    30
100
AcDbLine
 10
5.6254270733
 20
6.141223597
 30
0.0
 11
5.6254270733
 21
6.1684890554
 31
0.0
  0
LINE
  5
10C
330
1F
100
AcDbEntity
  8
0
  6
Continuous
 62
     7
370
    30
100
AcDbLine
 10
5.4844270355
 20
6.1684890554
 30
0.0
 11
5.4844270355
 21
6.141223597
 31
0.0
  0
LINE
  5
10D
330
1F
100
AcDbEntity
  8
0
  6
Continuous
 62
     7
370
    30
100
AcDbLine
 10
5.6254270733
 20
5.807890341
 30
0.0
 11
5.6254270733
 21
5.8351556527
 31
0.0
  0
LINE
  5
10E
330
1F
100
AcDbEntity
  8
0
  6
Continuous
 62
     7
370
    30
100
AcDbLine
 10
5.4844270355
 20
5.8351556527
 30
0.0
 11
5.4844270355
 21
5.807890341
 31
0.0
  0
LINE
  5
10F
330
1F
100
AcDbEntity
  8
0
  6
Continuous
 62
     7
370
    30
100
AcDbLine
 10
5.6254270733
 20
6.1967791152
 30
0.0
 11
5.6254270733
 21
6.2240445736
 31
0.0
  0
LINE
  5
110
330
1F
100
AcDbEntity
  8
0
  6
Continuous
 62
     7
370
    30
100
AcDbLine
 10
5.4844270355
 20
6.2240445736
 30
0.0
 11
5.4844270355
 21
6.1967791152
 31
0.0
  0
LINE
  5
111
330
1F
100
AcDbEntity
  8
0
  6
Continuous
 62
     7
370
    30
100
AcDbLine
 10
5.6254270733
 20
6.0856680788
 30
0.0
 11
5.6254270733
 21
6.1129333905
 31
0.0
  0
LINE
  5
112
330
1F
100
AcDbEntity
  8
0
  6
Continuous
 62
     7
370
    30
100
AcDbLine
 10
5.4844270355
 20
6.1129333905
 30
0.0
 11
5.4844270355
 21
6.0856680788
 31
0.0
  0
LINE
  5
113
330
1F
100
AcDbEntity
  8
0
  6
Continuous
 62
     7
370
    30
100
AcDbLine
 10
5.6254270733
 20
4.0856680663
 30
0.0
 11
5.6254270733
 21
4.1129334696
 31
0.0
  0
LINE
  5
114
330
1F
100
AcDbEntity
  8
0
  6
Continuous
 62
     7
370
    30
100
AcDbLine
 10
5.4844270355
 20
4.1129334696
 30
0.0
 11
5.4844270355
 21
4.0856680663
 31
0.0
  0
LINE
  5
115
330
1F
100
AcDbEntity
  8
0
  6
Continuous
 62
     7
370
    30
100
AcDbLine
 10
5.6254270733
 20
5.4745569384
 30
0.0
 11
5.6254270733
 21
5.5018223234
 31
0.0
  0
LINE
  5
116
330
1F
100
AcDbEntity
  8
0
  6
Continuous
 62
     7
370
    30
100
AcDbLine
 10
5.4844270355
 20
5.5018223234
 30
0.0
 11
5.4844270355
 21
5.4745569384
 31
0.0
  0
LINE
  5
117
330
1F
100
AcDbEntity
  8
0
  6
Continuous
 62
     7
370
    30
100
AcDbLine
 10
5.6254270733
 20
4.2523347401
 30
0.0
 11
5.6254270733
 21
4.2796001251
 31
0.0
  0
LINE
  5
118
330
1F
100
AcDbEntity
  8
0
  6
Continuous
 62
     7
370
    30
100
AcDbLine
 10
5.4844270355
 20
4.2796001251
 30
0.0
 11
5.4844270355
 21
4.2523347401
 31
0.0
  0
LINE
  5
119
330
1F
100
AcDbEntity
  8
0
  6
Continuous
 62
     7
370
    30
100
AcDbLine
 10
5.6254270733
 20
4.1412236212
 30
0.0
 11
5.6254270733
 21
4.1684890245
 31
0.0
  0
LINE
  5
11A
330
1F
100
AcDbEntity
  8
0
  6
Continuous
 62
     7
370
    30
100
AcDbLine
 10
5.4844270355
 20
4.1684890245
 30
0.0
 11
5.4844270355
 21
4.1412236212
 31
0.0
  0
LINE
  5
11B
330
1F
100
AcDbEntity
  8
0
  6
Continuous
 62
     7
370
    30
100
AcDbLine
 10
5.6254270733
 20
4.1967791761
 30
0.0
 11
5.6254270733
 21
4.2240445794
 31
0.0
  0
LINE
  5
11C
330
1F
100
AcDbEntity
  8
0
  6
Continuous
 62
     7
370
    30
100
AcDbLine
 10
5.4844270355
 20
4.2240445794
 30
0.0
 11
5.4844270355
 21
4.1967791761
 31
0.0
  0
LINE
  5
11D
330
1F
100
AcDbEntity
  8
0
  6
Continuous
 62
     7
370
    30
100
AcDbLine
 10
5.6254270733
 20
4.4745569596
 30
0.0
 11
5.6254270733
 21
4.5018223538
 31
0.0
  0
LINE
  5
11E
330
1F
100
AcDbEntity
  8
0
  6
Continuous
 62
     7
370
    30
100
AcDbLine
 10
5.4844270355
 20
4.5018223538
 30
0.0
 11
5.4844270355
 21
4.4745569596
 31
0.0
  0
LINE
  5
11F
330
1F
100
AcDbEntity
  8
0
  6
Continuous
 62
     7
370
    30
100
AcDbLine
 10
5.6254270733
 20
5.3078903104
 30
0.0
 11
5.6254270733
 21
5.3351556954
 31
0.0
  0
LINE
  5
120
330
1F
100
AcDbEntity
  8
0
  6
Continuous
 62
     7
370
    30
100
AcDbLine
 10
5.4844270355
 20
5.3351556954
 30
0.0
 11
5.4844270355
 21
5.3078903104
 31
0.0
  0
LINE
  5
121
330
1F
100
AcDbEntity
  8
0
  6
Continuous
 62
     7
370
    30
100
AcDbLine
 10
5.6254270733
 20
5.0969674537
 30
0.0
 11
5.6254270733
 21
5.1129334759
 31
0.0
  0
LINE
  5
122
330
1F
100
AcDbEntity
  8
0
  6
Continuous
 62
     7
370
    30
100
AcDbLine
 10
5.4844270355
 20
5.1129334759
 30
0.0
 11
5.4844270355
 21
5.0969674537
 31
0.0
  0
LINE
  5
123
330
1F
100
AcDbEntity
  8
0
  6
Continuous
 62
     7
370
    30
100
AcDbLine
 10
5.6254270733
 20
4.4190014048
 30
0.0
 11
5.6254270733
 21
4.4462667944
 31
0.0
  0
LINE
  5
124
330
1F
100
AcDbEntity
  8
0
  6
Continuous
 62
     7
370
    30
100
AcDbLine
 10
5.4844270355
 20
4.4462667944
 30
0.0
 11
5.4844270355
 21
4.4190014048
 31
0.0
  0
LINE
  5
125
330
1F
100
AcDbEntity
  8
0
  6
Continuous
 62
     7
370
    30
100
AcDbLine
 10
5.6254270733
 20
4.3634458476
 30
0.0
 11
5.6254270733
 21
4.3907112406
 31
0.0
  0
LINE
  5
126
330
1F
100
AcDbEntity
  8
0
  6
Continuous
 62
     7
370
    30
100
AcDbLine
 10
5.4844270355
 20
4.3907112406
 30
0.0
 11
5.4844270355
 21
4.3634458476
 31
0.0
  0
LINE
  5
127
330
1F
100
AcDbEntity
  8
0
  6
Continuous
 62
     7
370
    30
100
AcDbLine
 10
5.6254270733
 20
5.1412236091
 30
0.0
 11
5.6254270733
 21
5.1684889941
 31
0.0
  0
LINE
  5
128
330
1F
100
AcDbEntity
  8
0
  6
Continuous
 62
     7
370
    30
100
AcDbLine
 10
5.4844270355
 20
5.1684889941
 30
0.0
 11
5.4844270355
 21
5.1412236091
 31
0.0
  0
LINE
  5
129
330
1F
100
AcDbEntity
  8
0
  6
Continuous
 62
     7
370
    30
100
AcDbLine
 10
5.6254270733
 20
4.3078902904
 30
0.0
 11
5.6254270733
 21
4.3351556846
 31
0.0
  0
LINE
  5
12A
330
1F
100
AcDbEntity
  8
0
  6
Continuous
 62
     7
370
    30
100
AcDbLine
 10
5.4844270355
 20
4.3351556846
 30
0.0
 11
5.4844270355
 21
4.3078902904
 31
0.0
  0
LINE
  5
12B
330
1F
100
AcDbEntity
  8
0
  6
Continuous
 62
     7
370
    30
100
AcDbLine
 10
5.4629270506
 20
4.3803267635
 30
0.0
 11
5.4629270506
 21
4.3722414972
 31
0.0
  0
LINE
  5
12C
330
1F
100
AcDbEntity
  8
0
  6
Continuous
 62
     7
370
    30
100
AcDbLine
 10
5.4629270506
 20
4.3451033395
 30
0.0
 11
5.4629270506
 21
4.3370180731
 31
0.0
  0
LINE
  5
12D
330
1F
100
AcDbEntity
  8
0
  6
Continuous
 62
     7
370
    30
100
AcDbLine
 10
5.4629270506
 20
4.3098799153
 30
0.0
 11
5.4629270506
 21
4.3017946512
 31
0.0
  0
LINE
  5
12E
330
1F
100
AcDbEntity
  8
0
  6
Continuous
 62
     7
370
    30
100
AcDbLine
 10
5.4629270506
 20
4.2746564889
 30
0.0
 11
5.4629270506
 21
4.2665712248
 31
0.0
  0
LINE
  5
12F
330
1F
100
AcDbEntity
  8
0
  6
Continuous
 62
     7
370
    30
100
AcDbLine
 10
5.4629270506
 20
4.236457606
 30
0.0
 11
5.4629270506
 21
4.2313478075
 31
0.0
  0
LINE
  5
130
330
1F
100
AcDbEntity
  8
0
  6
Continuous
 62
     7
370
    30
100
AcDbLine
 10
5.4629270506
 20
4.2042096452
 30
0.0
 11
5.4629270506
 21
4.203967428
 31
0.0
  0
LINE
  5
131
330
1F
100
AcDbEntity
  8
0
  6
Continuous
 62
     7
370
    30
100
AcDbLine
 10
5.6469270583
 20
4.2154965232
 30
0.0
 11
5.6469270583
 21
4.2236174543
 31
0.0
  0
LINE
  5
132
330
1F
100
AcDbEntity
  8
0
  6
Continuous
 62
     7
370
    30
100
AcDbLine
 10
5.6469270583
 20
4.2507199496
 30
0.0
 11
5.6469270583
 21
4.2588408808
 31
0.0
  0
LINE
  5
133
330
1F
100
AcDbEntity
  8
0
  6
Continuous
 62
     7
370
    30
100
AcDbLine
 10
5.6469270583
 20
4.2859433669
 30
0.0
 11
5.6469270583
 21
4.2920131609
 31
0.0
  0
LINE
  5
134
330
1F
100
AcDbEntity
  8
0
  6
Continuous
 62
     7
370
    30
100
AcDbLine
 10
5.6469270583
 20
4.3211667933
 30
0.0
 11
5.6469270583
 21
4.3292877291
 31
0.0
  0
LINE
  5
135
330
1F
100
AcDbEntity
  8
0
  6
Continuous
 62
     7
370
    30
100
AcDbLine
 10
5.6469270583
 20
4.3563902174
 30
0.0
 11
5.6469270583
 21
4.3645111498
 31
0.0
  0
SPLINE
  5
136
330
1F
100
AcDbEntity
  8
0
  6
Continuous
 62
     7
370
    30
100
AcDbSpline
210
0.0
220
0.0
230
1.0
 70
     8
 71
     3
 72
    14
 73
    10
 74
     0
 42
0.000000001
 43
0.00000001
 40
0.0
 40
0.0
 40
0.0
 40
0.0
 40
0.1552760608668139
 40
0.2906395946114724
 40
0.406549966145073
 40
0.5037829926640729
 40
0.6158220708847127
 40
0.7325581827565721
 40
1.0
 40
1.0
 40
1.0
 40
1.0
 10
4.712266682253019
 20
5.660862226173406
 30
0.0
 10
4.713394954421386
 20
5.666776943461108
 30
0.0
 10
4.715506809679657
 20
5.677847877545491
 30
0.0
 10
4.723536941547833
 20
5.691371620572475
 30
0.0
 10
4.732419512371528
 20
5.700953499583981
 30
0.0
 10
4.742005446699869
 20
5.707910950137704
 30
0.0
 10
4.751669122610565
 20
5.712562358331597
 30
0.0
 10
4.764520885194539
 20
5.716200257165497
 30
0.0
 10
4.770066509302088
 20
5.716307037418804
 30
0.0
 10
4.773927042863939
 20
5.716381371478168
 30
0.0
  0
LINE
  5
137
330
1F
100
AcDbEntity
  8
0
  6
Continuous
 62
     7
370
    30
100
AcDbLine
 10
4.7739270429
 20
5.7163813715
 30
0.0
 11
4.7739270429
 21
5.6763814336
 31
0.0
  0
SPLINE
  5
138
330
1F
100
AcDbEntity
  8
0
  6
Continuous
 62
     7
370
    30
100
AcDbSpline
210
0.0
220
0.0
230
1.0
 70
     8
 71
     3
 72
    12
 73
     8
 74
     0
 42
0.000000001
 43
0.00000001
 40
0.0
 40
0.0
 40
0.0
 40
0.0
 40
0.0982697041841852
 40
0.1890515217780119
 40
0.3530664158147733
 40
0.6099251011182909
 40
1.0
 40
1.0
 40
1.0
 40
1.0
 10
4.752047557700951
 20
5.656681101140785
 30
0.0
 10
4.752461697619965
 20
5.658800486858706
 30
0.0
 10
4.753258421112402
 20
5.662877766815265
 30
0.0
 10
4.757000881626952
 20
5.669082691628778
 30
0.0
 10
4.764114127890956
 20
5.674777919158352
 30
0.0
 10
4.770622849788296
 20
5.676250493647235
 30
0.0
 10
4.772684157390085
 20
5.676332179987337
 30
0.0
 10
4.773927042863939
 20
5.676381433560865
 30
0.0
  0
LINE
  5
139
330
1F
100
AcDbEntity
  8
0
  6
Continuous
 62
     7
370
    30
100
AcDbLine
 10
4.7122666823
 20
5.6608622262
 30
0.0
 11
4.7520475577
 21
5.6566811011
 31
0.0
  0
LINE
  5
13A
330
1F
100
AcDbEntity
  8
0
  6
Continuous
 62
     7
370
    30
100
AcDbLine
 10
6.3359269789
 20
5.6763814336
 30
0.0
 11
6.3359269789
 21
5.7163813715
 31
0.0
  0
LINE
  5
13B
330
1F
100
AcDbEntity
  8
0
  6
Continuous
 62
     7
370
    30
100
AcDbLine
 10
4.7739270429
 20
5.7163813715
 30
0.0
 11
6.3359269789
 21
5.7163813715
 31
0.0
  0
LINE
  5
13C
330
1F
100
AcDbEntity
  8
0
  6
Continuous
 62
     7
370
    30
100
AcDbLine
 10
4.7739270429
 20
5.6763814336
 30
0.0
 11
6.3359269789
 21
5.6763814336
 31
0.0
  0
LINE
  5
13D
330
1F
100
AcDbEntity
  8
0
  6
Continuous
 62
     7
370
    30
100
AcDbLine
 10
6.3578064595
 20
5.6566811011
 30
0.0
 11
6.3975874266
 21
5.6608622262
 31
0.0
  0
SPLINE
  5
13E
330
1F
100
AcDbEntity
  8
0
  6
Continuous
 62
     7
370
    30
100
AcDbSpline
210
0.0
220
0.0
230
1.0
 70
     8
 71
     3
 72
    15
 73
    11
 74
     0
 42
0.000000001
 43
0.00000001
 40
0.0
 40
0.0
 40
0.0
 40
0.0
 40
0.1299703447125891
 40
0.2518696656116843
 40
0.3715653218317485
 40
0.4952119986545313
 40
0.5890048250113197
 40
0.7039618108809642
 40
0.8408277464598903
 40
1.0
 40
1.0
 40
1.0
 40
1.0
 10
6.335926978924053
 20
5.716381371478168
 30
0.0
 10
6.337330200460715
 20
5.716367100025732
 30
0.0
 10
6.340049504929744
 20
5.716339443363275
 30
0.0
 10
6.347519636755821
 20
5.715490905525781
 30
0.0
 10
6.357140306051438
 20
5.712988719233571
 30
0.0
 10
6.3672859210261
 20
5.708279214303818
 30
0.0
 10
6.377078128564149
 20
5.701244565116046
 30
0.0
 10
6.38599776786529
 20
5.691811653481942
 30
0.0
 10
6.394241406085019
 20
5.678203625837456
 30
0.0
 10
6.39641743230565
 20
5.666925948367349
 30
0.0
 10
6.397587426617299
 20
5.660862226173406
 30
0.0
  0
SPLINE
  5
13F
330
1F
100
AcDbEntity
  8
0
  6
Continuous
 62
     7
370
    30
100
AcDbSpline
210
0.0
220
0.0
230
1.0
 70
     8
 71
     3
 72
    12
 73
     8
 74
     0
 42
0.000000001
 43
0.00000001
 40
0.0
 40
0.0
 40
0.0
 40
0.0
 40
0.3713645295855632
 40
0.6426837767891601
 40
0.8048435350145487
 40
0.8977506102071824
 40
1.0
 40
1.0
 40
1.0
 40
1.0
 10
6.335926978924054
 20
5.676381433560865
 30
0.0
 10
6.336929283752547
 20
5.676364156698543
 30
0.0
 10
6.338663873357509
 20
5.676334257345637
 30
0.0
 10
6.345556497999588
 20
5.674925654573075
 30
0.0
 10
6.352748662129033
 20
5.669182582474475
 30
0.0
 10
6.35656165910785
 20
5.662996298202499
 30
0.0
 10
6.357378491866772
 20
5.658852292580385
 30
0.0
 10
6.35780645950376
 20
5.656681101140785
 30
0.0
  0
LWPOLYLINE
  5
140
330
1F
100
AcDbEntity
  8
0
  6
Continuous
 62
     7
370
    30
100
AcDbPolyline
 90
        9
 70
   128
 43
0.0
 10
4.7520475577
 20
5.6566811011
 10
4.7519064202
 20
5.65533809
 10
4.7517647876
 20
5.6539906789
 10
4.7516227609
 20
5.6526393078
 10
4.7514803768
 20
5.6512847101
 10
4.7513377267
 20
5.6499274725
 10
4.7511948751
 20
5.6485683282
 10
4.7510518767
 20
5.6472078639
 10
4.7509088142
 20
5.6458466663
  0
LINE
  5
141
330
1F
100
AcDbEntity
  8
0
  6
Continuous
 62
     7
370
    30
100
AcDbLine
 10
4.7509088142
 20
5.6458466663
 30
0.0
 11
4.7111279387
 21
5.6500277913
 31
0.0
  0
LWPOLYLINE
  5
142
330
1F
100
AcDbEntity
  8
0
  6
Continuous
 62
     7
370
    30
100
AcDbPolyline
 90
        9
 70
   128
 43
0.0
 10
4.7122666823
 20
5.6608622262
 10
4.7121255356
 20
5.6595193617
 10
4.7119839122
 20
5.6581718039
 10
4.7118418855
 20
5.6568204329
 10
4.7116995013
 20
5.6554658352
 10
4.7115568513
 20
5.6541085975
 10
4.7114139996
 20
5.6527494532
 10
4.7112710013
 20
5.6513889889
 10
4.7111279387
 20
5.6500277913
  0
LINE
  5
143
330
1F
100
AcDbEntity
  8
0
  6
Continuous
 62
     7
370
    30
100
AcDbLine
 10
6.358945313
 20
5.6458466663
 30
0.0
 11
6.3987261335
 21
5.6500277913
 31
0.0
  0
LWPOLYLINE
  5
144
330
1F
100
AcDbEntity
  8
0
  6
Continuous
 62
     7
370
    30
100
AcDbPolyline
 90
        9
 70
   128
 43
0.0
 10
6.358945313
 20
5.6458466663
 10
6.358802168
 20
5.6472078639
 10
6.3586591697
 20
5.6485683282
 10
6.358516318
 20
5.6499274725
 10
6.3583737596
 20
5.6512847101
 10
6.3582313479
 20
5.6526393078
 10
6.3580892296
 20
5.6539906789
 10
6.3579476979
 20
5.65533809
 10
6.3578064595
 20
5.6566811011
  0
LWPOLYLINE
  5
145
330
1F
100
AcDbEntity
  8
0
  6
Continuous
 62
     7
370
    30
100
AcDbPolyline
 90
        9
 70
   128
 43
0.0
 10
6.3987261335
 20
5.6500277913
 10
6.3985831351
 20
5.6513889889
 10
6.3984401368
 20
5.6527494532
 10
6.3982972851
 20
5.6541085975
 10
6.3981545801
 20
5.6554658352
 10
6.3980121684
 20
5.6568204329
 10
6.3978701967
 20
5.6581718039
 10
6.3977285183
 20
5.6595193617
 10
6.3975874266
 20
5.6608622262
  0
LINE
  5
146
330
1F
100
AcDbEntity
  8
0
  6
Continuous
 62
     7
370
    30
100
AcDbLine
 10
4.5692375895
 20
3.9173603673
 30
0.0
 11
4.5294567141
 21
3.9215414923
 31
0.0
  0
LINE
  5
147
330
1F
100
AcDbEntity
  8
0
  6
Continuous
 62
     7
370
    30
100
AcDbLine
 10
4.7509088142
 20
5.6458466663
 30
0.0
 11
4.5692375895
 21
3.9173603673
 31
0.0
  0
LINE
  5
148
330
1F
100
AcDbEntity
  8
0
  6
Continuous
 62
     7
370
    30
100
AcDbLine
 10
4.7111279387
 20
5.6500277913
 30
0.0
 11
4.5294567141
 21
3.9215414923
 31
0.0
  0
LINE
  5
149
330
1F
100
AcDbEntity
  8
0
  6
Continuous
 62
     7
370
    30
100
AcDbLine
 10
6.5406164277
 20
3.9173603673
 30
0.0
 11
6.5803973948
 21
3.9215414923
 31
0.0
  0
LINE
  5
14A
330
1F
100
AcDbEntity
  8
0
  6
Continuous
 62
     7
370
    30
100
AcDbLine
 10
6.5406164277
 20
3.9173603673
 30
0.0
 11
6.358945313
 21
5.6458466663
 31
0.0
  0
LINE
  5
14B
330
1F
100
AcDbEntity
  8
0
  6
Continuous
 62
     7
370
    30
100
AcDbLine
 10
6.5803973948
 20
3.9215414923
 30
0.0
 11
6.3987261335
 21
5.6500277913
 31
0.0
  0
LINE
  5
14C
330
1F
100
AcDbEntity
  8
0
  6
Continuous
 62
     7
370
    30
100
AcDbLine
 10
5.6274270702
 20
5.7583813796
 30
0.0
 11
5.4824270386
 21
5.7583813796
 31
0.0
  0
LINE
  5
14D
330
1F
100
AcDbEntity
  8
0
  6
Continuous
 62
     7
370
    30
100
AcDbLine
 10
5.3684270322
 20
4.0159674448
 30
0.0
 11
5.3824270472
 21
4.0159674448
 31
0.0
  0
LINE
  5
14E
330
1F
100
AcDbEntity
  8
0
  6
Continuous
 62
     7
370
    30
100
AcDbLine
 10
5.7274270617
 20
4.0159674448
 30
0.0
 11
5.74142704
 21
4.0159674448
 31
0.0
  0
ARC
  5
14F
330
1F
100
AcDbEntity
  8
0
  6
Continuous
 62
     7
370
    30
100
AcDbCircle
 10
5.5676535837
 20
4.2431217424
 30
0.0
 40
0.3354575977716537
100
AcDbArc
 50
260.8464216633
 51
266.3501637666
  0
LWPOLYLINE
  5
150
330
1F
100
AcDbEntity
  8
0
  6
Continuous
 62
     7
370
    30
100
AcDbPolyline
 90
        3
 70
   128
 43
0.0
 10
5.5462988274
 20
3.9083445414
 10
5.5526076946
 20
3.9089673175
 10
5.5549270544
 20
3.909246971
  0
ARC
  5
151
330
1F
100
AcDbEntity
  8
0
  6
Continuous
 62
     7
370
    30
100
AcDbCircle
 10
5.5806067955
 20
4.0864053097
 30
0.0
 40
0.1787314470543608
100
AcDbArc
 50
274.9651265082
 51
290.4679517372
  0
ARC
  5
152
330
1F
100
AcDbEntity
  8
0
  6
Continuous
 62
     7
370
    30
100
AcDbCircle
 10
5.6358621761
 20
4.0301477283
 30
0.0
 40
0.1114259042094062
100
AcDbArc
 50
266.2724481813
 51
273.7275518187
  0
ARC
  5
153
330
1F
100
AcDbEntity
  8
0
  6
Continuous
 62
     7
370
    30
100
AcDbCircle
 10
5.5418768587
 20
4.2459835777
 30
0.0
 40
0.338334261996111
100
AcDbArc
 50
273.6736852558
 51
284.855221291
  0
ARC
  5
154
330
1F
100
AcDbEntity
  8
0
  6
Continuous
 62
     7
370
    30
100
AcDbCircle
 10
5.5815034767
 20
4.1186686848
 30
0.0
 40
0.2110885666846843
100
AcDbArc
 50
251.1027936152
 51
265.12243133
  0
ARC
  5
155
330
1F
100
AcDbEntity
  8
0
  6
Continuous
 62
     7
370
    30
100
AcDbCircle
 10
5.5020500419
 20
4.1795886511
 30
0.0
 40
0.2608668495508272
100
AcDbArc
 50
267.563961049
 51
272.436038951
  0
ARC
  5
156
330
1F
100
AcDbEntity
  8
0
  6
Continuous
 62
     7
370
    30
100
AcDbCircle
 10
5.5233466708
 20
3.95874679
 30
0.0
 40
0.0513024559193986
100
AcDbArc
 50
230.8577928595
 51
259.2507806753
  0
LINE
  5
157
330
1F
100
AcDbEntity
  8
0
  6
Continuous
 62
     7
370
    30
100
AcDbLine
 10
5.5029673213
 20
5.9048562742
 30
0.0
 11
5.4599270186
 21
5.9048562742
 31
0.0
  0
LINE
  5
158
330
1F
100
AcDbEntity
  8
0
  6
Continuous
 62
     7
370
    30
100
AcDbLine
 10
5.649927017
 20
5.9048562742
 30
0.0
 11
5.5029673213
 21
5.9048562742
 31
0.0
  0
LINE
  5
159
330
1F
100
AcDbEntity
  8
0
  6
Continuous
 62
     7
370
    30
100
AcDbLine
 10
5.4844270355
 20
5.8907111709
 30
0.0
 11
5.6254270733
 21
5.8907111709
 31
0.0
  0
LINE
  5
15A
330
1F
100
AcDbEntity
  8
0
  6
Continuous
 62
     7
370
    30
100
AcDbLine
 10
5.5163675132
 20
5.9190013775
 30
0.0
 11
5.4844270355
 21
5.9190013775
 31
0.0
  0
LINE
  5
15B
330
1F
100
AcDbEntity
  8
0
  6
Continuous
 62
     7
370
    30
100
AcDbLine
 10
5.6254270733
 20
5.9190013775
 30
0.0
 11
5.5163675132
 21
5.9190013775
 31
0.0
  0
LINE
  5
15C
330
1F
100
AcDbEntity
  8
0
  6
Continuous
 62
     7
370
    30
100
AcDbLine
 10
5.5163675132
 20
5.5301125299
 30
0.0
 11
5.4844270355
 21
5.5301125299
 31
0.0
  0
LINE
  5
15D
330
1F
100
AcDbEntity
  8
0
  6
Continuous
 62
     7
370
    30
100
AcDbLine
 10
5.6254270733
 20
5.5301125299
 30
0.0
 11
5.5163675132
 21
5.5301125299
 31
0.0
  0
LINE
  5
15E
330
1F
100
AcDbEntity
  8
0
  6
Continuous
 62
     7
370
    30
100
AcDbLine
 10
5.5029673213
 20
5.5159674267
 30
0.0
 11
5.4599270186
 21
5.5159674267
 31
0.0
  0
LINE
  5
15F
330
1F
100
AcDbEntity
  8
0
  6
Continuous
 62
     7
370
    30
100
AcDbLine
 10
5.649927017
 20
5.5159674267
 30
0.0
 11
5.5029673213
 21
5.5159674267
 31
0.0
  0
LINE
  5
160
330
1F
100
AcDbEntity
  8
0
  6
Continuous
 62
     7
370
    30
100
AcDbLine
 10
5.4844270355
 20
5.5018223234
 30
0.0
 11
5.6254270733
 21
5.5018223234
 31
0.0
  0
LINE
  5
161
330
1F
100
AcDbEntity
  8
0
  6
Continuous
 62
     7
370
    30
100
AcDbLine
 10
5.5029673213
 20
6.2381896768
 30
0.0
 11
5.4599270186
 21
6.2381896768
 31
0.0
  0
LINE
  5
162
330
1F
100
AcDbEntity
  8
0
  6
Continuous
 62
     7
370
    30
100
AcDbLine
 10
5.649927017
 20
6.2381896768
 30
0.0
 11
5.5029673213
 21
6.2381896768
 31
0.0
  0
LINE
  5
163
330
1F
100
AcDbEntity
  8
0
  6
Continuous
 62
     7
370
    30
100
AcDbLine
 10
5.4844270355
 20
6.2240445736
 30
0.0
 11
5.6254270733
 21
6.2240445736
 31
0.0
  0
LINE
  5
164
330
1F
100
AcDbEntity
  8
0
  6
Continuous
 62
     7
370
    30
100
AcDbLine
 10
5.5029673213
 20
6.1270784937
 30
0.0
 11
5.4599270186
 21
6.1270784937
 31
0.0
  0
LINE
  5
165
330
1F
100
AcDbEntity
  8
0
  6
Continuous
 62
     7
370
    30
100
AcDbLine
 10
5.649927017
 20
6.1270784937
 30
0.0
 11
5.5029673213
 21
6.1270784937
 31
0.0
  0
LINE
  5
166
330
1F
100
AcDbEntity
  8
0
  6
Continuous
 62
     7
370
    30
100
AcDbLine
 10
5.4844270355
 20
6.1129333905
 30
0.0
 11
5.6254270733
 21
6.1129333905
 31
0.0
  0
LINE
  5
167
330
1F
100
AcDbEntity
  8
0
  6
Continuous
 62
     7
370
    30
100
AcDbLine
 10
5.5163675132
 20
6.141223597
 30
0.0
 11
5.4844270355
 21
6.141223597
 31
0.0
  0
LINE
  5
168
330
1F
100
AcDbEntity
  8
0
  6
Continuous
 62
     7
370
    30
100
AcDbLine
 10
5.6254270733
 20
6.141223597
 30
0.0
 11
5.5163675132
 21
6.141223597
 31
0.0
  0
LINE
  5
169
330
1F
100
AcDbEntity
  8
0
  6
Continuous
 62
     7
370
    30
100
AcDbLine
 10
5.5163675132
 20
6.2523347801
 30
0.0
 11
5.4844270355
 21
6.2523347801
 31
0.0
  0
LINE
  5
16A
330
1F
100
AcDbEntity
  8
0
  6
Continuous
 62
     7
370
    30
100
AcDbLine
 10
5.6254270733
 20
6.2523347801
 30
0.0
 11
5.5163675132
 21
6.2523347801
 31
0.0
  0
LINE
  5
16B
330
1F
100
AcDbEntity
  8
0
  6
Continuous
 62
     7
370
    30
100
AcDbLine
 10
5.5163675132
 20
5.4745569384
 30
0.0
 11
5.4844270355
 21
5.4745569384
 31
0.0
  0
LINE
  5
16C
330
1F
100
AcDbEntity
  8
0
  6
Continuous
 62
     7
370
    30
100
AcDbLine
 10
5.6254270733
 20
5.4745569384
 30
0.0
 11
5.5163675132
 21
5.4745569384
 31
0.0
  0
LINE
  5
16D
330
1F
100
AcDbEntity
  8
0
  6
Continuous
 62
     7
370
    30
100
AcDbLine
 10
5.5029673213
 20
5.4604119085
 30
0.0
 11
5.4599270186
 21
5.4604119085
 31
0.0
  0
LINE
  5
16E
330
1F
100
AcDbEntity
  8
0
  6
Continuous
 62
     7
370
    30
100
AcDbLine
 10
5.649927017
 20
5.4604119085
 30
0.0
 11
5.5029673213
 21
5.4604119085
 31
0.0
  0
LINE
  5
16F
330
1F
100
AcDbEntity
  8
0
  6
Continuous
 62
     7
370
    30
100
AcDbLine
 10
5.5163675132
 20
6.0856680788
 30
0.0
 11
5.4844270355
 21
6.0856680788
 31
0.0
  0
LINE
  5
170
330
1F
100
AcDbEntity
  8
0
  6
Continuous
 62
     7
370
    30
100
AcDbLine
 10
5.6254270733
 20
6.0856680788
 30
0.0
 11
5.5163675132
 21
6.0856680788
 31
0.0
  0
LINE
  5
171
330
1F
100
AcDbEntity
  8
0
  6
Continuous
 62
     7
370
    30
100
AcDbLine
 10
5.5029673213
 20
6.0715229755
 30
0.0
 11
5.4599270186
 21
6.0715229755
 31
0.0
  0
LINE
  5
172
330
1F
100
AcDbEntity
  8
0
  6
Continuous
 62
     7
370
    30
100
AcDbLine
 10
5.649927017
 20
6.0715229755
 30
0.0
 11
5.5029673213
 21
6.0715229755
 31
0.0
  0
LINE
  5
173
330
1F
100
AcDbEntity
  8
0
  6
Continuous
 62
     7
370
    30
100
AcDbLine
 10
5.5029673213
 20
5.5715230182
 30
0.0
 11
5.4599270186
 21
5.5715230182
 31
0.0
  0
LINE
  5
174
330
1F
100
AcDbEntity
  8
0
  6
Continuous
 62
     7
370
    30
100
AcDbLine
 10
5.649927017
 20
5.5715230182
 30
0.0
 11
5.5029673213
 21
5.5715230182
 31
0.0
  0
LINE
  5
175
330
1F
100
AcDbEntity
  8
0
  6
Continuous
 62
     7
370
    30
100
AcDbLine
 10
5.4844270355
 20
5.557377915
 30
0.0
 11
5.6254270733
 21
5.557377915
 31
0.0
  0
LINE
  5
176
330
1F
100
AcDbEntity
  8
0
  6
Continuous
 62
     7
370
    30
100
AcDbLine
 10
5.4844270355
 20
5.4462668052
 30
0.0
 11
5.6254270733
 21
5.4462668052
 31
0.0
  0
LINE
  5
177
330
1F
100
AcDbEntity
  8
0
  6
Continuous
 62
     7
370
    30
100
AcDbLine
 10
5.5163675132
 20
5.4190014202
 30
0.0
 11
5.4844270355
 21
5.4190014202
 31
0.0
  0
LINE
  5
178
330
1F
100
AcDbEntity
  8
0
  6
Continuous
 62
     7
370
    30
100
AcDbLine
 10
5.6254270733
 20
5.4190014202
 30
0.0
 11
5.5163675132
 21
5.4190014202
 31
0.0
  0
LINE
  5
179
330
1F
100
AcDbEntity
  8
0
  6
Continuous
 62
     7
370
    30
100
AcDbLine
 10
5.5029673213
 20
5.4048563169
 30
0.0
 11
5.4599270186
 21
5.4048563169
 31
0.0
  0
LINE
  5
17A
330
1F
100
AcDbEntity
  8
0
  6
Continuous
 62
     7
370
    30
100
AcDbLine
 10
5.649927017
 20
5.4048563169
 30
0.0
 11
5.5029673213
 21
5.4048563169
 31
0.0
  0
LINE
  5
17B
330
1F
100
AcDbEntity
  8
0
  6
Continuous
 62
     7
370
    30
100
AcDbLine
 10
5.4844270355
 20
5.3907112136
 30
0.0
 11
5.6254270733
 21
5.3907112136
 31
0.0
  0
LINE
  5
17C
330
1F
100
AcDbEntity
  8
0
  6
Continuous
 62
     7
370
    30
100
AcDbLine
 10
5.5029673213
 20
5.9604119391
 30
0.0
 11
5.4599270186
 21
5.9604119391
 31
0.0
  0
LINE
  5
17D
330
1F
100
AcDbEntity
  8
0
  6
Continuous
 62
     7
370
    30
100
AcDbLine
 10
5.649927017
 20
5.9604119391
 30
0.0
 11
5.5029673213
 21
5.9604119391
 31
0.0
  0
LINE
  5
17E
330
1F
100
AcDbEntity
  8
0
  6
Continuous
 62
     7
370
    30
100
AcDbLine
 10
5.4844270355
 20
5.9462668358
 30
0.0
 11
5.6254270733
 21
5.9462668358
 31
0.0
  0
LINE
  5
17F
330
1F
100
AcDbEntity
  8
0
  6
Continuous
 62
     7
370
    30
100
AcDbLine
 10
5.5163675132
 20
5.9745568957
 30
0.0
 11
5.4844270355
 21
5.9745568957
 31
0.0
  0
LINE
  5
180
330
1F
100
AcDbEntity
  8
0
  6
Continuous
 62
     7
370
    30
100
AcDbLine
 10
5.6254270733
 20
5.9745568957
 30
0.0
 11
5.5163675132
 21
5.9745568957
 31
0.0
  0
LINE
  5
181
330
1F
100
AcDbEntity
  8
0
  6
Continuous
 62
     7
370
    30
100
AcDbLine
 10
5.5163675132
 20
6.3078902983
 30
0.0
 11
5.4844270355
 21
6.3078902983
 31
0.0
  0
LINE
  5
182
330
1F
100
AcDbEntity
  8
0
  6
Continuous
 62
     7
370
    30
100
AcDbLine
 10
5.6254270733
 20
6.3078902983
 30
0.0
 11
5.5163675132
 21
6.3078902983
 31
0.0
  0
LINE
  5
183
330
1F
100
AcDbEntity
  8
0
  6
Continuous
 62
     7
370
    30
100
AcDbLine
 10
5.5029673213
 20
6.2937451951
 30
0.0
 11
5.4599270186
 21
6.2937451951
 31
0.0
  0
LINE
  5
184
330
1F
100
AcDbEntity
  8
0
  6
Continuous
 62
     7
370
    30
100
AcDbLine
 10
5.649927017
 20
6.2937451951
 30
0.0
 11
5.5029673213
 21
6.2937451951
 31
0.0
  0
LINE
  5
185
330
1F
100
AcDbEntity
  8
0
  6
Continuous
 62
     7
370
    30
100
AcDbLine
 10
5.4844270355
 20
6.0573778723
 30
0.0
 11
5.6254270733
 21
6.0573778723
 31
0.0
  0
LINE
  5
186
330
1F
100
AcDbEntity
  8
0
  6
Continuous
 62
     7
370
    30
100
AcDbLine
 10
5.5163675132
 20
5.5856680482
 30
0.0
 11
5.4844270355
 21
5.5856680482
 31
0.0
  0
LINE
  5
187
330
1F
100
AcDbEntity
  8
0
  6
Continuous
 62
     7
370
    30
100
AcDbLine
 10
5.6254270733
 20
5.5856680482
 30
0.0
 11
5.5163675132
 21
5.5856680482
 31
0.0
  0
LINE
  5
188
330
1F
100
AcDbEntity
  8
0
  6
Continuous
 62
     7
370
    30
100
AcDbLine
 10
5.5163675132
 20
5.6412236397
 30
0.0
 11
5.4844270355
 21
5.6412236397
 31
0.0
  0
LINE
  5
189
330
1F
100
AcDbEntity
  8
0
  6
Continuous
 62
     7
370
    30
100
AcDbLine
 10
5.6254270733
 20
5.6412236397
 30
0.0
 11
5.5163675132
 21
5.6412236397
 31
0.0
  0
LINE
  5
18A
330
1F
100
AcDbEntity
  8
0
  6
Continuous
 62
     7
370
    30
100
AcDbLine
 10
5.5029673213
 20
5.6270785364
 30
0.0
 11
5.4599270186
 21
5.6270785364
 31
0.0
  0
LINE
  5
18B
330
1F
100
AcDbEntity
  8
0
  6
Continuous
 62
     7
370
    30
100
AcDbLine
 10
5.649927017
 20
5.6270785364
 30
0.0
 11
5.5029673213
 21
5.6270785364
 31
0.0
  0
LINE
  5
18C
330
1F
100
AcDbEntity
  8
0
  6
Continuous
 62
     7
370
    30
100
AcDbLine
 10
5.4844270355
 20
5.6129334332
 30
0.0
 11
5.6254270733
 21
5.6129334332
 31
0.0
  0
LINE
  5
18D
330
1F
100
AcDbEntity
  8
0
  6
Continuous
 62
     7
370
    30
100
AcDbLine
 10
5.4844270355
 20
6.2796000918
 30
0.0
 11
5.6254270733
 21
6.2796000918
 31
0.0
  0
LINE
  5
18E
330
1F
100
AcDbEntity
  8
0
  6
Continuous
 62
     7
370
    30
100
AcDbLine
 10
5.5029673213
 20
5.1826340974
 30
0.0
 11
5.4599270186
 21
5.1826340974
 31
0.0
  0
LINE
  5
18F
330
1F
100
AcDbEntity
  8
0
  6
Continuous
 62
     7
370
    30
100
AcDbLine
 10
5.649927017
 20
5.1826340974
 30
0.0
 11
5.5029673213
 21
5.1826340974
 31
0.0
  0
LINE
  5
190
330
1F
100
AcDbEntity
  8
0
  6
Continuous
 62
     7
370
    30
100
AcDbLine
 10
5.4844270355
 20
5.1684889941
 30
0.0
 11
5.6254270733
 21
5.1684889941
 31
0.0
  0
LINE
  5
191
330
1F
100
AcDbEntity
  8
0
  6
Continuous
 62
     7
370
    30
100
AcDbLine
 10
5.5029673213
 20
6.1826341586
 30
0.0
 11
5.4599270186
 21
6.1826341586
 31
0.0
  0
LINE
  5
192
330
1F
100
AcDbEntity
  8
0
  6
Continuous
 62
     7
370
    30
100
AcDbLine
 10
5.649927017
 20
6.1826341586
 30
0.0
 11
5.5029673213
 21
6.1826341586
 31
0.0
  0
LINE
  5
193
330
1F
100
AcDbEntity
  8
0
  6
Continuous
 62
     7
370
    30
100
AcDbLine
 10
5.4844270355
 20
6.1684890554
 30
0.0
 11
5.6254270733
 21
6.1684890554
 31
0.0
  0
LINE
  5
194
330
1F
100
AcDbEntity
  8
0
  6
Continuous
 62
     7
370
    30
100
AcDbLine
 10
5.4844270355
 20
5.6684889514
 30
0.0
 11
5.6254270733
 21
5.6684889514
 31
0.0
  0
LINE
  5
195
330
1F
100
AcDbEntity
  8
0
  6
Continuous
 62
     7
370
    30
100
AcDbLine
 10
5.5163675132
 20
6.1967791152
 30
0.0
 11
5.4844270355
 21
6.1967791152
 31
0.0
  0
LINE
  5
196
330
1F
100
AcDbEntity
  8
0
  6
Continuous
 62
     7
370
    30
100
AcDbLine
 10
5.6254270733
 20
6.1967791152
 30
0.0
 11
5.5163675132
 21
6.1967791152
 31
0.0
  0
LINE
  5
197
330
1F
100
AcDbEntity
  8
0
  6
Continuous
 62
     7
370
    30
100
AcDbLine
 10
5.5163675132
 20
5.1967792006
 30
0.0
 11
5.4844270355
 21
5.1967792006
 31
0.0
  0
LINE
  5
198
330
1F
100
AcDbEntity
  8
0
  6
Continuous
 62
     7
370
    30
100
AcDbLine
 10
5.6254270733
 20
5.1967792006
 30
0.0
 11
5.5163675132
 21
5.1967792006
 31
0.0
  0
LINE
  5
199
330
1F
100
AcDbEntity
  8
0
  6
Continuous
 62
     7
370
    30
100
AcDbLine
 10
5.4844270355
 20
4.5018223538
 30
0.0
 11
5.6254270733
 21
4.5018223538
 31
0.0
  0
LINE
  5
19A
330
1F
100
AcDbEntity
  8
0
  6
Continuous
 62
     7
370
    30
100
AcDbLine
 10
5.5163675132
 20
6.0301125606
 30
0.0
 11
5.4844270355
 21
6.0301125606
 31
0.0
  0
LINE
  5
19B
330
1F
100
AcDbEntity
  8
0
  6
Continuous
 62
     7
370
    30
100
AcDbLine
 10
5.6254270733
 20
6.0301125606
 30
0.0
 11
5.5163675132
 21
6.0301125606
 31
0.0
  0
LINE
  5
19C
330
1F
100
AcDbEntity
  8
0
  6
Continuous
 62
     7
370
    30
100
AcDbLine
 10
5.5029673213
 20
6.0159674573
 30
0.0
 11
5.4599270186
 21
6.0159674573
 31
0.0
  0
LINE
  5
19D
330
1F
100
AcDbEntity
  8
0
  6
Continuous
 62
     7
370
    30
100
AcDbLine
 10
5.649927017
 20
6.0159674573
 30
0.0
 11
5.5029673213
 21
6.0159674573
 31
0.0
  0
LINE
  5
19E
330
1F
100
AcDbEntity
  8
0
  6
Continuous
 62
     7
370
    30
100
AcDbLine
 10
5.5163675132
 20
5.8634458592
 30
0.0
 11
5.4844270355
 21
5.8634458592
 31
0.0
  0
LINE
  5
19F
330
1F
100
AcDbEntity
  8
0
  6
Continuous
 62
     7
370
    30
100
AcDbLine
 10
5.6254270733
 20
5.8634458592
 30
0.0
 11
5.5163675132
 21
5.8634458592
 31
0.0
  0
LINE
  5
1A0
330
1F
100
AcDbEntity
  8
0
  6
Continuous
 62
     7
370
    30
100
AcDbLine
 10
5.5029673213
 20
5.849300756
 30
0.0
 11
5.4599270186
 21
5.849300756
 31
0.0
  0
LINE
  5
1A1
330
1F
100
AcDbEntity
  8
0
  6
Continuous
 62
     7
370
    30
100
AcDbLine
 10
5.649927017
 20
5.849300756
 30
0.0
 11
5.5029673213
 21
5.849300756
 31
0.0
  0
LINE
  5
1A2
330
1F
100
AcDbEntity
  8
0
  6
Continuous
 62
     7
370
    30
100
AcDbLine
 10
5.5163675132
 20
5.807890341
 30
0.0
 11
5.4844270355
 21
5.807890341
 31
0.0
  0
LINE
  5
1A3
330
1F
100
AcDbEntity
  8
0
  6
Continuous
 62
     7
370
    30
100
AcDbLine
 10
5.6254270733
 20
5.807890341
 30
0.0
 11
5.5163675132
 21
5.807890341
 31
0.0
  0
LINE
  5
1A4
330
1F
100
AcDbEntity
  8
0
  6
Continuous
 62
     7
370
    30
100
AcDbLine
 10
5.5029673213
 20
5.7937452378
 30
0.0
 11
5.4599270186
 21
5.7937452378
 31
0.0
  0
LINE
  5
1A5
330
1F
100
AcDbEntity
  8
0
  6
Continuous
 62
     7
370
    30
100
AcDbLine
 10
5.649927017
 20
5.7937452378
 30
0.0
 11
5.5029673213
 21
5.7937452378
 31
0.0
  0
LINE
  5
1A6
330
1F
100
AcDbEntity
  8
0
  6
Continuous
 62
     7
370
    30
100
AcDbLine
 10
5.4844270355
 20
5.8351556527
 30
0.0
 11
5.6254270733
 21
5.8351556527
 31
0.0
  0
LINE
  5
1A7
330
1F
100
AcDbEntity
  8
0
  6
Continuous
 62
     7
370
    30
100
AcDbLine
 10
5.4844270355
 20
5.7796001345
 30
0.0
 11
5.6254270733
 21
5.7796001345
 31
0.0
  0
LINE
  5
1A8
330
1F
100
AcDbEntity
  8
0
  6
Continuous
 62
     7
370
    30
100
AcDbLine
 10
5.4844270355
 20
6.001822354
 30
0.0
 11
5.6254270733
 21
6.001822354
 31
0.0
  0
LINE
  5
1A9
330
1F
100
AcDbEntity
  8
0
  6
Continuous
 62
     7
370
    30
100
AcDbLine
 10
5.5029673213
 20
5.2381896889
 30
0.0
 11
5.4599270186
 21
5.2381896889
 31
0.0
  0
LINE
  5
1AA
330
1F
100
AcDbEntity
  8
0
  6
Continuous
 62
     7
370
    30
100
AcDbLine
 10
5.649927017
 20
5.2381896889
 30
0.0
 11
5.5029673213
 21
5.2381896889
 31
0.0
  0
LINE
  5
1AB
330
1F
100
AcDbEntity
  8
0
  6
Continuous
 62
     7
370
    30
100
AcDbLine
 10
5.4844270355
 20
5.2240445857
 30
0.0
 11
5.6254270733
 21
5.2240445857
 31
0.0
  0
LINE
  5
1AC
330
1F
100
AcDbEntity
  8
0
  6
Continuous
 62
     7
370
    30
100
AcDbLine
 10
5.5163675132
 20
5.2523347189
 30
0.0
 11
5.4844270355
 21
5.2523347189
 31
0.0
  0
LINE
  5
1AD
330
1F
100
AcDbEntity
  8
0
  6
Continuous
 62
     7
370
    30
100
AcDbLine
 10
5.6254270733
 20
5.2523347189
 30
0.0
 11
5.5163675132
 21
5.2523347189
 31
0.0
  0
LINE
  5
1AE
330
1F
100
AcDbEntity
  8
0
  6
Continuous
 62
     7
370
    30
100
AcDbLine
 10
5.5163675132
 20
4.1412236212
 30
0.0
 11
5.4844270355
 21
4.1412236212
 31
0.0
  0
LINE
  5
1AF
330
1F
100
AcDbEntity
  8
0
  6
Continuous
 62
     7
370
    30
100
AcDbLine
 10
5.6254270733
 20
4.1412236212
 30
0.0
 11
5.5163675132
 21
4.1412236212
 31
0.0
  0
LINE
  5
1B0
330
1F
100
AcDbEntity
  8
0
  6
Continuous
 62
     7
370
    30
100
AcDbLine
 10
5.5029673213
 20
4.1270785362
 30
0.0
 11
5.4599270186
 21
4.1270785362
 31
0.0
  0
LINE
  5
1B1
330
1F
100
AcDbEntity
  8
0
  6
Continuous
 62
     7
370
    30
100
AcDbLine
 10
5.649927017
 20
4.1270785362
 30
0.0
 11
5.5029673213
 21
4.1270785362
 31
0.0
  0
LINE
  5
1B2
330
1F
100
AcDbEntity
  8
0
  6
Continuous
 62
     7
370
    30
100
AcDbLine
 10
5.4844270355
 20
4.1129334696
 30
0.0
 11
5.6254270733
 21
4.1129334696
 31
0.0
  0
LINE
  5
1B3
330
1F
100
AcDbEntity
  8
0
  6
Continuous
 62
     7
370
    30
100
AcDbLine
 10
5.5163675132
 20
4.0856680663
 30
0.0
 11
5.4844270355
 21
4.0856680663
 31
0.0
  0
LINE
  5
1B4
330
1F
100
AcDbEntity
  8
0
  6
Continuous
 62
     7
370
    30
100
AcDbLine
 10
5.6254270733
 20
4.0856680663
 30
0.0
 11
5.5163675132
 21
4.0856680663
 31
0.0
  0
LINE
  5
1B5
330
1F
100
AcDbEntity
  8
0
  6
Continuous
 62
     7
370
    30
100
AcDbLine
 10
5.5029673213
 20
4.2381896552
 30
0.0
 11
5.4609968662
 21
4.2381896552
 31
0.0
  0
LINE
  5
1B6
330
1F
100
AcDbEntity
  8
0
  6
Continuous
 62
     7
370
    30
100
AcDbLine
 10
5.6285277175
 20
4.2381896552
 30
0.0
 11
5.5029673213
 21
4.2381896552
 31
0.0
  0
LINE
  5
1B7
330
1F
100
AcDbEntity
  8
0
  6
Continuous
 62
     7
370
    30
100
AcDbLine
 10
5.4844270355
 20
4.2240445794
 30
0.0
 11
5.6254270733
 21
4.2240445794
 31
0.0
  0
LINE
  5
1B8
330
1F
100
AcDbEntity
  8
0
  6
Continuous
 62
     7
370
    30
100
AcDbLine
 10
5.5029673213
 20
5.2937452071
 30
0.0
 11
5.4599270186
 21
5.2937452071
 31
0.0
  0
LINE
  5
1B9
330
1F
100
AcDbEntity
  8
0
  6
Continuous
 62
     7
370
    30
100
AcDbLine
 10
5.649927017
 20
5.2937452071
 30
0.0
 11
5.5029673213
 21
5.2937452071
 31
0.0
  0
LINE
  5
1BA
330
1F
100
AcDbEntity
  8
0
  6
Continuous
 62
     7
370
    30
100
AcDbLine
 10
5.4844270355
 20
5.2796001039
 30
0.0
 11
5.6254270733
 21
5.2796001039
 31
0.0
  0
LINE
  5
1BB
330
1F
100
AcDbEntity
  8
0
  6
Continuous
 62
     7
370
    30
100
AcDbLine
 10
5.5163675132
 20
5.3078903104
 30
0.0
 11
5.4844270355
 21
5.3078903104
 31
0.0
  0
LINE
  5
1BC
330
1F
100
AcDbEntity
  8
0
  6
Continuous
 62
     7
370
    30
100
AcDbLine
 10
5.6254270733
 20
5.3078903104
 30
0.0
 11
5.5163675132
 21
5.3078903104
 31
0.0
  0
LINE
  5
1BD
330
1F
100
AcDbEntity
  8
0
  6
Continuous
 62
     7
370
    30
100
AcDbLine
 10
5.5163675132
 20
4.2523347401
 30
0.0
 11
5.4844270355
 21
4.2523347401
 31
0.0
  0
LINE
  5
1BE
330
1F
100
AcDbEntity
  8
0
  6
Continuous
 62
     7
370
    30
100
AcDbLine
 10
5.6254270733
 20
4.2523347401
 30
0.0
 11
5.5163675132
 21
4.2523347401
 31
0.0
  0
LINE
  5
1BF
330
1F
100
AcDbEntity
  8
0
  6
Continuous
 62
     7
370
    30
100
AcDbLine
 10
5.5163675132
 20
4.1967791761
 30
0.0
 11
5.4844270355
 21
4.1967791761
 31
0.0
  0
LINE
  5
1C0
330
1F
100
AcDbEntity
  8
0
  6
Continuous
 62
     7
370
    30
100
AcDbLine
 10
5.6254270733
 20
4.1967791761
 30
0.0
 11
5.5163675132
 21
4.1967791761
 31
0.0
  0
LINE
  5
1C1
330
1F
100
AcDbEntity
  8
0
  6
Continuous
 62
     7
370
    30
100
AcDbLine
 10
5.5029673213
 20
4.1826340911
 30
0.0
 11
5.481357191
 21
4.1826340911
 31
0.0
  0
LINE
  5
1C2
330
1F
100
AcDbEntity
  8
0
  6
Continuous
 62
     7
370
    30
100
AcDbLine
 10
5.6488881157
 20
4.1826340911
 30
0.0
 11
5.5029673213
 21
4.1826340911
 31
0.0
  0
LINE
  5
1C3
330
1F
100
AcDbEntity
  8
0
  6
Continuous
 62
     7
370
    30
100
AcDbLine
 10
5.4844270355
 20
4.1684890245
 30
0.0
 11
5.6254270733
 21
4.1684890245
 31
0.0
  0
LINE
  5
1C4
330
1F
100
AcDbEntity
  8
0
  6
Continuous
 62
     7
370
    30
100
AcDbLine
 10
5.5163675132
 20
5.3634458286
 30
0.0
 11
5.4844270355
 21
5.3634458286
 31
0.0
  0
LINE
  5
1C5
330
1F
100
AcDbEntity
  8
0
  6
Continuous
 62
     7
370
    30
100
AcDbLine
 10
5.6254270733
 20
5.3634458286
 30
0.0
 11
5.5163675132
 21
5.3634458286
 31
0.0
  0
LINE
  5
1C6
330
1F
100
AcDbEntity
  8
0
  6
Continuous
 62
     7
370
    30
100
AcDbLine
 10
5.5029673213
 20
5.3493007987
 30
0.0
 11
5.4599270186
 21
5.3493007987
 31
0.0
  0
LINE
  5
1C7
330
1F
100
AcDbEntity
  8
0
  6
Continuous
 62
     7
370
    30
100
AcDbLine
 10
5.649927017
 20
5.3493007987
 30
0.0
 11
5.5029673213
 21
5.3493007987
 31
0.0
  0
LINE
  5
1C8
330
1F
100
AcDbEntity
  8
0
  6
Continuous
 62
     7
370
    30
100
AcDbLine
 10
5.4844270355
 20
5.3351556954
 30
0.0
 11
5.6254270733
 21
5.3351556954
 31
0.0
  0
LINE
  5
1C9
330
1F
100
AcDbEntity
  8
0
  6
Continuous
 62
     7
370
    30
100
AcDbLine
 10
5.5029673213
 20
4.4604118747
 30
0.0
 11
5.4599270186
 21
4.4604118747
 31
0.0
  0
LINE
  5
1CA
330
1F
100
AcDbEntity
  8
0
  6
Continuous
 62
     7
370
    30
100
AcDbLine
 10
5.649927017
 20
4.4604118747
 30
0.0
 11
5.5029673213
 21
4.4604118747
 31
0.0
  0
LINE
  5
1CB
330
1F
100
AcDbEntity
  8
0
  6
Continuous
 62
     7
370
    30
100
AcDbLine
 10
5.4844270355
 20
4.4462667944
 30
0.0
 11
5.6254270733
 21
4.4462667944
 31
0.0
  0
LINE
  5
1CC
330
1F
100
AcDbEntity
  8
0
  6
Continuous
 62
     7
370
    30
100
AcDbLine
 10
5.5029673213
 20
4.3493007672
 30
0.0
 11
5.4701972332
 21
4.3493007672
 31
0.0
  0
LINE
  5
1CD
330
1F
100
AcDbEntity
  8
0
  6
Continuous
 62
     7
370
    30
100
AcDbLine
 10
5.6346477535
 20
4.3493007672
 30
0.0
 11
5.5029673213
 21
4.3493007672
 31
0.0
  0
LINE
  5
1CE
330
1F
100
AcDbEntity
  8
0
  6
Continuous
 62
     7
370
    30
100
AcDbLine
 10
5.4844270355
 20
4.3351556846
 30
0.0
 11
5.6254270733
 21
4.3351556846
 31
0.0
  0
LINE
  5
1CF
330
1F
100
AcDbEntity
  8
0
  6
Continuous
 62
     7
370
    30
100
AcDbLine
 10
5.5163675132
 20
4.4745569596
 30
0.0
 11
5.4844270355
 21
4.4745569596
 31
0.0
  0
LINE
  5
1D0
330
1F
100
AcDbEntity
  8
0
  6
Continuous
 62
     7
370
    30
100
AcDbLine
 10
5.6254270733
 20
4.4745569596
 30
0.0
 11
5.5163675132
 21
4.4745569596
 31
0.0
  0
LINE
  5
1D1
330
1F
100
AcDbEntity
  8
0
  6
Continuous
 62
     7
370
    30
100
AcDbLine
 10
5.5163675132
 20
4.3078902904
 30
0.0
 11
5.4844270355
 21
4.3078902904
 31
0.0
  0
LINE
  5
1D2
330
1F
100
AcDbEntity
  8
0
  6
Continuous
 62
     7
370
    30
100
AcDbLine
 10
5.6254270733
 20
4.3078902904
 30
0.0
 11
5.5163675132
 21
4.3078902904
 31
0.0
  0
LINE
  5
1D3
330
1F
100
AcDbEntity
  8
0
  6
Continuous
 62
     7
370
    30
100
AcDbLine
 10
5.5029673213
 20
4.2937452101
 30
0.0
 11
5.4768690962
 21
4.2937452101
 31
0.0
  0
LINE
  5
1D4
330
1F
100
AcDbEntity
  8
0
  6
Continuous
 62
     7
370
    30
100
AcDbLine
 10
5.6474796919
 20
4.2937452101
 30
0.0
 11
5.5029673213
 21
4.2937452101
 31
0.0
  0
LINE
  5
1D5
330
1F
100
AcDbEntity
  8
0
  6
Continuous
 62
     7
370
    30
100
AcDbLine
 10
5.5029673213
 20
5.1270785792
 30
0.0
 11
5.4599270186
 21
5.1270785792
 31
0.0
  0
LINE
  5
1D6
330
1F
100
AcDbEntity
  8
0
  6
Continuous
 62
     7
370
    30
100
AcDbLine
 10
5.649927017
 20
5.1270785792
 30
0.0
 11
5.5029673213
 21
5.1270785792
 31
0.0
  0
LINE
  5
1D7
330
1F
100
AcDbEntity
  8
0
  6
Continuous
 62
     7
370
    30
100
AcDbLine
 10
5.4844270355
 20
5.1129334759
 30
0.0
 11
5.6254270733
 21
5.1129334759
 31
0.0
  0
LINE
  5
1D8
330
1F
100
AcDbEntity
  8
0
  6
Continuous
 62
     7
370
    30
100
AcDbLine
 10
5.5163675132
 20
4.3634458476
 30
0.0
 11
5.4844270355
 21
4.3634458476
 31
0.0
  0
LINE
  5
1D9
330
1F
100
AcDbEntity
  8
0
  6
Continuous
 62
     7
370
    30
100
AcDbLine
 10
5.6254270733
 20
4.3634458476
 30
0.0
 11
5.5163675132
 21
4.3634458476
 31
0.0
  0
LINE
  5
1DA
330
1F
100
AcDbEntity
  8
0
  6
Continuous
 62
     7
370
    30
100
AcDbLine
 10
5.4844270355
 20
4.2796001251
 30
0.0
 11
5.6254270733
 21
4.2796001251
 31
0.0
  0
LINE
  5
1DB
330
1F
100
AcDbEntity
  8
0
  6
Continuous
 62
     7
370
    30
100
AcDbLine
 10
5.5163675132
 20
5.1412236091
 30
0.0
 11
5.4844270355
 21
5.1412236091
 31
0.0
  0
LINE
  5
1DC
330
1F
100
AcDbEntity
  8
0
  6
Continuous
 62
     7
370
    30
100
AcDbLine
 10
5.6254270733
 20
5.1412236091
 30
0.0
 11
5.5163675132
 21
5.1412236091
 31
0.0
  0
LINE
  5
1DD
330
1F
100
AcDbEntity
  8
0
  6
Continuous
 62
     7
370
    30
100
AcDbLine
 10
5.5029673213
 20
4.4048563221
 30
0.0
 11
5.4599270186
 21
4.4048563221
 31
0.0
  0
LINE
  5
1DE
330
1F
100
AcDbEntity
  8
0
  6
Continuous
 62
     7
370
    30
100
AcDbLine
 10
5.649927017
 20
4.4048563221
 30
0.0
 11
5.5029673213
 21
4.4048563221
 31
0.0
  0
LINE
  5
1DF
330
1F
100
AcDbEntity
  8
0
  6
Continuous
 62
     7
370
    30
100
AcDbLine
 10
5.4844270355
 20
4.3907112406
 30
0.0
 11
5.6254270733
 21
4.3907112406
 31
0.0
  0
LINE
  5
1E0
330
1F
100
AcDbEntity
  8
0
  6
Continuous
 62
     7
370
    30
100
AcDbLine
 10
5.5163675132
 20
4.4190014048
 30
0.0
 11
5.4844270355
 21
4.4190014048
 31
0.0
  0
LINE
  5
1E1
330
1F
100
AcDbEntity
  8
0
  6
Continuous
 62
     7
370
    30
100
AcDbLine
 10
5.6254270733
 20
4.4190014048
 30
0.0
 11
5.5163675132
 21
4.4190014048
 31
0.0
  0
LINE
  5
1E2
330
1F
100
AcDbEntity
  8
0
  6
Continuous
 62
     7
370
    30
100
AcDbLine
 10
5.5163675132
 20
6.3457653541
 30
0.0
 11
5.4844270355
 21
6.3457653541
 31
0.0
  0
LINE
  5
1E3
330
1F
100
AcDbEntity
  8
0
  6
Continuous
 62
     7
370
    30
100
AcDbLine
 10
5.6254270733
 20
6.3457653541
 30
0.0
 11
5.5163675132
 21
6.3457653541
 31
0.0
  0
LINE
  5
1E4
330
1F
100
AcDbEntity
  8
0
  6
Continuous
 62
     7
370
    30
100
AcDbLine
 10
5.5151889135
 20
3.9182728067
 30
0.0
 11
5.5137782165
 21
3.9083445414
 31
0.0
  0
LINE
  5
1E5
330
1F
100
AcDbEntity
  8
0
  6
Continuous
 62
     7
370
    30
100
AcDbLine
 10
5.5955655716
 20
3.9119360366
 30
0.0
 11
5.5960758924
 21
3.9083445414
 31
0.0
  0
LINE
  5
1E6
330
1F
100
AcDbEntity
  8
0
  6
Continuous
 62
     7
370
    30
100
AcDbLine
 10
5.5463635067
 20
3.9105151463
 30
0.0
 11
5.5462988274
 21
3.9083445414
 31
0.0
  0
LINE
  5
1E7
330
1F
100
AcDbEntity
  8
0
  6
Continuous
 62
     7
370
    30
100
AcDbLine
 10
5.4629270506
 20
4.203967428
 30
0.0
 11
5.4844270355
 21
4.203967428
 31
0.0
  0
LINE
  5
1E8
330
1F
100
AcDbEntity
  8
0
  6
Continuous
 62
     7
370
    30
100
AcDbLine
 10
5.6254270733
 20
4.203967428
 30
0.0
 11
5.6285277175
 21
4.203967428
 31
0.0
  0
ARC
  5
1E9
330
1F
100
AcDbEntity
  8
0
  6
Continuous
 62
     7
370
    30
100
AcDbCircle
 10
5.737427043
 20
4.252967433
 30
0.0
 40
0.0250000000000004
100
AcDbArc
 50
90.0
 51
285.0
  0
LINE
  5
1EA
330
1F
100
AcDbEntity
  8
0
  6
Continuous
 62
     7
370
    30
100
AcDbLine
 10
5.7699270507
 20
4.2779674323
 30
0.0
 11
5.7374270462
 21
4.2779674323
 31
0.0
  0
ARC
  5
1EB
330
1F
100
AcDbEntity
  8
0
  6
Continuous
 62
     7
370
    30
100
AcDbCircle
 10
5.769927043
 20
4.358967433
 30
0.0
 40
0.0810000000000004
100
AcDbArc
 50
270.0
 51
70.3026369226
  0
LINE
  5
1EC
330
1F
100
AcDbEntity
  8
0
  6
Continuous
 62
     7
370
    30
100
AcDbLine
 10
5.6792454183
 20
4.4774656469
 30
0.0
 11
5.797228222
 21
4.4352278031
 31
0.0
  0
ARC
  5
1ED
330
1F
100
AcDbEntity
  8
0
  6
Continuous
 62
     7
370
    30
100
AcDbCircle
 10
5.6873346536
 20
4.5000613165
 30
0.0
 40
0.0240000000000012
100
AcDbArc
 50
217.7718781381
 51
250.3026369226
  0
ARC
  5
1EE
330
1F
100
AcDbEntity
  8
0
  6
Continuous
 62
     7
370
    30
100
AcDbCircle
 10
5.554927043
 20
4.3974594964
 30
0.0
 40
0.1435079365079413
100
AcDbArc
 50
37.7718781381
 51
142.2281218619
  0
ARC
  5
1EF
330
1F
100
AcDbEntity
  8
0
  6
Continuous
 62
     7
370
    30
100
AcDbCircle
 10
5.4225194325
 20
4.5000613165
 30
0.0
 40
0.0240000000000029
100
AcDbArc
 50
289.6973630774
 51
322.2281218619
  0
ARC
  5
1F0
330
1F
100
AcDbEntity
  8
0
  6
Continuous
 62
     7
370
    30
100
AcDbCircle
 10
5.339927043
 20
4.358967433
 30
0.0
 40
0.0810000000000014
100
AcDbArc
 50
109.6973630774
 51
270.0
  0
LINE
  5
1F1
330
1F
100
AcDbEntity
  8
0
  6
Continuous
 62
     7
370
    30
100
AcDbLine
 10
5.372427026
 20
4.2779674323
 30
0.0
 11
5.3399270581
 21
4.2779674323
 31
0.0
  0
ARC
  5
1F2
330
1F
100
AcDbEntity
  8
0
  6
Continuous
 62
     7
370
    30
100
AcDbCircle
 10
5.372427043
 20
4.252967433
 30
0.0
 40
0.0250000000000021
100
AcDbArc
 50
255.0
 51
90.0
  0
LINE
  5
1F3
330
1F
100
AcDbEntity
  8
0
  6
Continuous
 62
     7
370
    30
100
AcDbLine
 10
5.3205580419
 20
4.2409837787
 30
0.0
 11
5.3659565708
 21
4.2288192851
 31
0.0
  0
LINE
  5
1F4
330
1F
100
AcDbEntity
  8
0
  6
Continuous
 62
     7
370
    30
100
AcDbLine
 10
5.3205580419
 20
4.2409837787
 30
0.0
 11
5.3236638927
 21
4.2525748948
 31
0.0
  0
LINE
  5
1F5
330
1F
100
AcDbEntity
  8
0
  6
Continuous
 62
     7
370
    30
100
AcDbLine
 10
5.3236638927
 20
4.2525748948
 30
0.0
 11
5.3690623849
 21
4.2404104012
 31
0.0
  0
ARC
  5
1F6
330
1F
100
AcDbEntity
  8
0
  6
Continuous
 62
     7
370
    30
100
AcDbCircle
 10
5.372427043
 20
4.252967433
 30
0.0
 40
0.0130000000000002
100
AcDbArc
 50
255.0
 51
90.0
  0
LINE
  5
1F7
330
1F
100
AcDbEntity
  8
0
  6
Continuous
 62
     7
370
    30
100
AcDbLine
 10
5.372427026
 20
4.2659674326
 30
0.0
 11
5.3399270581
 21
4.2659674326
 31
0.0
  0
ARC
  5
1F8
330
1F
100
AcDbEntity
  8
0
  6
Continuous
 62
     7
370
    30
100
AcDbCircle
 10
5.339927043
 20
4.358967433
 30
0.0
 40
0.0930000000000032
100
AcDbArc
 50
109.6973630774
 51
270.0
  0
LINE
  5
1F9
330
1F
100
AcDbEntity
  8
0
  6
Continuous
 62
     7
370
    30
100
AcDbLine
 10
5.3085811969
 20
4.4465256351
 30
0.0
 11
5.426564074
 21
4.488763488
 31
0.0
  0
ARC
  5
1FA
330
1F
100
AcDbEntity
  8
0
  6
Continuous
 62
     7
370
    30
100
AcDbCircle
 10
5.4225194325
 20
4.5000613165
 30
0.0
 40
0.0120000000000014
100
AcDbArc
 50
289.6973630774
 51
322.2281218619
  0
ARC
  5
1FB
330
1F
100
AcDbEntity
  8
0
  6
Continuous
 62
     7
370
    30
100
AcDbCircle
 10
5.554927043
 20
4.3974594964
 30
0.0
 40
0.1555079365079407
100
AcDbArc
 50
37.7718781381
 51
142.2281218619
  0
ARC
  5
1FC
330
1F
100
AcDbEntity
  8
0
  6
Continuous
 62
     7
370
    30
100
AcDbCircle
 10
5.6873346536
 20
4.5000613165
 30
0.0
 40
0.0119999999999986
100
AcDbArc
 50
217.7718781381
 51
250.3026369226
  0
LINE
  5
1FD
330
1F
100
AcDbEntity
  8
0
  6
Continuous
 62
     7
370
    30
100
AcDbLine
 10
5.6832899982
 20
4.488763488
 30
0.0
 11
5.8012728753
 21
4.4465256351
 31
0.0
  0
ARC
  5
1FE
330
1F
100
AcDbEntity
  8
0
  6
Continuous
 62
     7
370
    30
100
AcDbCircle
 10
5.769927043
 20
4.358967433
 30
0.0
 40
0.0930000000000017
100
AcDbArc
 50
270.0
 51
70.3026369226
  0
LINE
  5
1FF
330
1F
100
AcDbEntity
  8
0
  6
Continuous
 62
     7
370
    30
100
AcDbLine
 10
5.7699270507
 20
4.2659674326
 30
0.0
 11
5.7374270462
 21
4.2659674326
 31
0.0
  0
ARC
  5
200
330
1F
100
AcDbEntity
  8
0
  6
Continuous
 62
     7
370
    30
100
AcDbCircle
 10
5.737427043
 20
4.252967433
 30
0.0
 40
0.0130000000000017
100
AcDbArc
 50
90.0
 51
285.0
  0
LINE
  5
201
330
1F
100
AcDbEntity
  8
0
  6
Continuous
 62
     7
370
    30
100
AcDbLine
 10
5.7407916873
 20
4.2404104012
 30
0.0
 11
5.7861902162
 21
4.2525748948
 31
0.0
  0
LINE
  5
202
330
1F
100
AcDbEntity
  8
0
  6
Continuous
 62
     7
370
    30
100
AcDbLine
 10
5.7861902162
 20
4.2525748948
 30
0.0
 11
5.789296067
 21
4.2409837787
 31
0.0
  0
LINE
  5
203
330
1F
100
AcDbEntity
  8
0
  6
Continuous
 62
     7
370
    30
100
AcDbLine
 10
5.7438975381
 20
4.2288192851
 30
0.0
 11
5.789296067
 21
4.2409837787
 31
0.0
  0
LINE
  5
204
330
1F
100
AcDbEntity
  8
0
  6
Continuous
 62
     7
370
    30
100
AcDbLine
 10
5.3126258502
 20
4.4352278031
 30
0.0
 11
5.4306086906
 21
4.4774656469
 31
0.0
  0
ARC
  5
205
330
1F
100
AcDbEntity
  8
0
  6
Continuous
 62
     7
370
    30
100
AcDbCircle
 10
5.396927043
 20
4.1657880202
 30
0.0
 40
0.032
100
AcDbArc
 50
119.8355602232
 51
180.0
  0
LINE
  5
206
330
1F
100
AcDbEntity
  8
0
  6
Continuous
 62
     7
370
    30
100
AcDbLine
 10
5.364927056
 20
4.0479674318
 30
0.0
 11
5.364927056
 21
4.1657880241
 31
0.0
  0
ARC
  5
207
330
1F
100
AcDbEntity
  8
0
  6
Continuous
 62
     7
370
    30
100
AcDbCircle
 10
5.096927043
 20
4.047967433
 30
0.0
 40
0.2679999999999998
100
AcDbArc
 50
296.7854683781
 51
0.0
  0
ARC
  5
208
330
1F
100
AcDbEntity
  8
0
  6
Continuous
 62
     7
370
    30
100
AcDbCircle
 10
5.546927043
 20
3.8120982474
 30
0.0
 40
0.3570000000000007
100
AcDbArc
 50
188.0229869069
 51
261.1501169016
  0
ARC
  5
209
330
1F
100
AcDbEntity
  8
0
  6
Continuous
 62
     7
370
    30
100
AcDbCircle
 10
5.496927043
 20
3.490967433
 30
0.0
 40
0.0319999999999998
100
AcDbArc
 50
261.1501169016
 51
0.0
  0
LINE
  5
20A
330
1F
100
AcDbEntity
  8
0
  6
Continuous
 62
     7
370
    30
100
AcDbLine
 10
5.5289270215
 20
3.6209673979
 30
0.0
 11
5.5289270215
 21
3.490967453
 31
0.0
  0
LINE
  5
20B
330
1F
100
AcDbEntity
  8
0
  6
Continuous
 62
     7
370
    30
100
AcDbLine
 10
5.5469270669
 20
3.6209673979
 30
0.0
 11
5.5469270669
 21
3.490967453
 31
0.0
  0
ARC
  5
20C
330
1F
100
AcDbEntity
  8
0
  6
Continuous
 62
     7
370
    30
100
AcDbCircle
 10
5.496927043
 20
3.490967433
 30
0.0
 40
0.0500000000000004
100
AcDbArc
 50
261.1501169016
 51
0.0
  0
ARC
  5
20D
330
1F
100
AcDbEntity
  8
0
  6
Continuous
 62
     7
370
    30
100
AcDbCircle
 10
5.546927043
 20
3.8120982474
 30
0.0
 40
0.375000000000001
100
AcDbArc
 50
188.0229869069
 51
261.1501169016
  0
ARC
  5
20E
330
1F
100
AcDbEntity
  8
0
  6
Continuous
 62
     7
370
    30
100
AcDbCircle
 10
5.2379808512
 20
3.7685522881
 30
0.0
 40
0.0630000000000014
100
AcDbArc
 50
116.7854683781
 51
188.0229869069
  0
ARC
  5
20F
330
1F
100
AcDbEntity
  8
0
  6
Continuous
 62
     7
370
    30
100
AcDbCircle
 10
5.096927043
 20
4.047967433
 30
0.0
 40
0.25
100
AcDbArc
 50
296.7854683781
 51
0.0
  0
LINE
  5
210
330
1F
100
AcDbEntity
  8
0
  6
Continuous
 62
     7
370
    30
100
AcDbLine
 10
5.3469270473
 20
4.0479674318
 30
0.0
 11
5.3469270473
 21
4.1657880241
 31
0.0
  0
ARC
  5
211
330
1F
100
AcDbEntity
  8
0
  6
Continuous
 62
     7
370
    30
100
AcDbCircle
 10
5.346927043
 20
4.252967433
 30
0.0
 40
0.0685000000000007
100
AcDbArc
 50
299.8355602232
 51
110.0
  0
LINE
  5
212
330
1F
100
AcDbEntity
  8
0
  6
Continuous
 62
     7
370
    30
100
AcDbLine
 10
5.3296550101
 20
4.3004219129
 30
0.0
 11
5.3234986746
 21
4.3173363763
 31
0.0
  0
ARC
  5
213
330
1F
100
AcDbEntity
  8
0
  6
Continuous
 62
     7
370
    30
100
AcDbCircle
 10
5.2379808512
 20
3.7685522881
 30
0.0
 40
0.0450000000000011
100
AcDbArc
 50
116.7854683781
 51
188.0229869069
  0
LINE
  5
214
330
1F
100
AcDbEntity
  8
0
  6
Continuous
 62
     7
370
    30
100
AcDbLine
 10
5.5289270215
 20
3.6209673979
 30
0.0
 11
5.5469270669
 21
3.6209673979
 31
0.0
  0
ARC
  5
215
330
1F
100
AcDbEntity
  8
0
  6
Continuous
 62
     7
370
    30
100
AcDbCircle
 10
5.346927043
 20
4.252967433
 30
0.0
 40
0.0504999999999996
100
AcDbArc
 50
299.8355602232
 51
110.0
  0
ARC
  5
216
330
1F
100
AcDbEntity
  8
0
  6
Continuous
 62
     7
370
    30
100
AcDbCircle
 10
5.396927043
 20
4.1657880202
 30
0.0
 40
0.0500000000000005
100
AcDbArc
 50
119.8355602232
 51
180.0
  0
LINE
  5
217
330
1F
100
AcDbEntity
  8
0
  6
Continuous
 62
     7
370
    30
100
AcDbLine
 10
5.7801990254
 20
4.3004219129
 30
0.0
 11
5.7863554343
 21
4.3173363763
 31
0.0
  0
ARC
  5
218
330
1F
100
AcDbEntity
  8
0
  6
Continuous
 62
     7
370
    30
100
AcDbCircle
 10
5.762927043
 20
4.252967433
 30
0.0
 40
0.0505000000000004
100
AcDbArc
 50
70.0
 51
240.1644397768
  0
ARC
  5
219
330
1F
100
AcDbEntity
  8
0
  6
Continuous
 62
     7
370
    30
100
AcDbCircle
 10
5.712927043
 20
4.1657880202
 30
0.0
 40
0.0499999999999998
100
AcDbArc
 50
0.0
 51
60.1644397768
  0
LINE
  5
21A
330
1F
100
AcDbEntity
  8
0
  6
Continuous
 62
     7
370
    30
100
AcDbLine
 10
5.7629270249
 20
4.0479674318
 30
0.0
 11
5.7629270249
 21
4.1657880241
 31
0.0
  0
ARC
  5
21B
330
1F
100
AcDbEntity
  8
0
  6
Continuous
 62
     7
370
    30
100
AcDbCircle
 10
6.012927043
 20
4.047967433
 30
0.0
 40
0.2500000000000004
100
AcDbArc
 50
180.0
 51
243.2145316219
  0
ARC
  5
21C
330
1F
100
AcDbEntity
  8
0
  6
Continuous
 62
     7
370
    30
100
AcDbCircle
 10
5.8718732348
 20
3.7685522881
 30
0.0
 40
0.0629999999999996
100
AcDbArc
 50
351.9770130931
 51
63.2145316219
  0
ARC
  5
21D
330
1F
100
AcDbEntity
  8
0
  6
Continuous
 62
     7
370
    30
100
AcDbCircle
 10
5.562927043
 20
3.8120982474
 30
0.0
 40
0.3750000000000001
100
AcDbArc
 50
278.8498830984
 51
351.9770130931
  0
ARC
  5
21E
330
1F
100
AcDbEntity
  8
0
  6
Continuous
 62
     7
370
    30
100
AcDbCircle
 10
5.612927043
 20
3.490967433
 30
0.0
 40
0.0499999999999998
100
AcDbArc
 50
180.0
 51
278.8498830984
  0
LINE
  5
21F
330
1F
100
AcDbEntity
  8
0
  6
Continuous
 62
     7
370
    30
100
AcDbLine
 10
5.562927042
 20
3.6209673979
 30
0.0
 11
5.562927042
 21
3.490967453
 31
0.0
  0
LINE
  5
220
330
1F
100
AcDbEntity
  8
0
  6
Continuous
 62
     7
370
    30
100
AcDbLine
 10
5.5809270141
 20
3.6209673979
 30
0.0
 11
5.562927042
 21
3.6209673979
 31
0.0
  0
LINE
  5
221
330
1F
100
AcDbEntity
  8
0
  6
Continuous
 62
     7
370
    30
100
AcDbLine
 10
5.5809270141
 20
3.6209673979
 30
0.0
 11
5.5809270141
 21
3.490967453
 31
0.0
  0
ARC
  5
222
330
1F
100
AcDbEntity
  8
0
  6
Continuous
 62
     7
370
    30
100
AcDbCircle
 10
5.612927043
 20
3.490967433
 30
0.0
 40
0.0319999999999996
100
AcDbArc
 50
180.0
 51
278.8498830984
  0
ARC
  5
223
330
1F
100
AcDbEntity
  8
0
  6
Continuous
 62
     7
370
    30
100
AcDbCircle
 10
5.562927043
 20
3.8120982474
 30
0.0
 40
0.3569999999999999
100
AcDbArc
 50
278.8498830984
 51
351.9770130931
  0
ARC
  5
224
330
1F
100
AcDbEntity
  8
0
  6
Continuous
 62
     7
370
    30
100
AcDbCircle
 10
5.8718732348
 20
3.7685522881
 30
0.0
 40
0.0449999999999999
100
AcDbArc
 50
351.9770130931
 51
63.2145316219
  0
ARC
  5
225
330
1F
100
AcDbEntity
  8
0
  6
Continuous
 62
     7
370
    30
100
AcDbCircle
 10
6.012927043
 20
4.047967433
 30
0.0
 40
0.268
100
AcDbArc
 50
180.0
 51
243.2145316219
  0
LINE
  5
226
330
1F
100
AcDbEntity
  8
0
  6
Continuous
 62
     7
370
    30
100
AcDbLine
 10
5.7449270529
 20
4.0479674318
 30
0.0
 11
5.7449270529
 21
4.1657880241
 31
0.0
  0
ARC
  5
227
330
1F
100
AcDbEntity
  8
0
  6
Continuous
 62
     7
370
    30
100
AcDbCircle
 10
5.712927043
 20
4.1657880202
 30
0.0
 40
0.032
100
AcDbArc
 50
0.0
 51
60.1644397768
  0
ARC
  5
228
330
1F
100
AcDbEntity
  8
0
  6
Continuous
 62
     7
370
    30
100
AcDbCircle
 10
5.762927043
 20
4.252967433
 30
0.0
 40
0.0685000000000012
100
AcDbArc
 50
70.0
 51
240.1644397768
  0
LINE
  5
229
330
1F
100
AcDbEntity
  8
0
  6
Continuous
 62
     7
370
    30
100
AcDbLine
 10
5.481357191
 20
4.3909674334
 30
0.0
 11
5.3669270529
 21
4.3909674334
 31
0.0
  0
LINE
  5
22A
330
1F
100
AcDbEntity
  8
0
  6
Continuous
 62
     7
370
    30
100
AcDbLine
 10
5.4609968662
 20
4.3792123734
 30
0.0
 11
5.481357191
 21
4.3909674334
 31
0.0
  0
LINE
  5
22B
330
1F
100
AcDbEntity
  8
0
  6
Continuous
 62
     7
370
    30
100
AcDbLine
 10
5.4609968662
 20
4.3733558869
 30
0.0
 11
5.4609968662
 21
4.3792123734
 31
0.0
  0
LINE
  5
22C
330
1F
100
AcDbEntity
  8
0
  6
Continuous
 62
     7
370
    30
100
AcDbLine
 10
5.481357191
 20
4.3616008274
 30
0.0
 11
5.4609968662
 21
4.3733558869
 31
0.0
  0
LINE
  5
22D
330
1F
100
AcDbEntity
  8
0
  6
Continuous
 62
     7
370
    30
100
AcDbLine
 10
5.481357191
 20
4.3557440093
 30
0.0
 11
5.481357191
 21
4.3616008274
 31
0.0
  0
LINE
  5
22E
330
1F
100
AcDbEntity
  8
0
  6
Continuous
 62
     7
370
    30
100
AcDbLine
 10
5.4609968662
 20
4.3439889492
 30
0.0
 11
5.481357191
 21
4.3557440093
 31
0.0
  0
LINE
  5
22F
330
1F
100
AcDbEntity
  8
0
  6
Continuous
 62
     7
370
    30
100
AcDbLine
 10
5.4609968662
 20
4.3381324656
 30
0.0
 11
5.4609968662
 21
4.3439889492
 31
0.0
  0
LINE
  5
230
330
1F
100
AcDbEntity
  8
0
  6
Continuous
 62
     7
370
    30
100
AcDbLine
 10
5.481357191
 20
4.3263774056
 30
0.0
 11
5.4609968662
 21
4.3381324656
 31
0.0
  0
LINE
  5
231
330
1F
100
AcDbEntity
  8
0
  6
Continuous
 62
     7
370
    30
100
AcDbLine
 10
5.481357191
 20
4.3205205874
 30
0.0
 11
5.481357191
 21
4.3263774056
 31
0.0
  0
LINE
  5
232
330
1F
100
AcDbEntity
  8
0
  6
Continuous
 62
     7
370
    30
100
AcDbLine
 10
5.4609968662
 20
4.3087655274
 30
0.0
 11
5.481357191
 21
4.3205205874
 31
0.0
  0
LINE
  5
233
330
1F
100
AcDbEntity
  8
0
  6
Continuous
 62
     7
370
    30
100
AcDbLine
 10
5.4609968662
 20
4.3029090392
 30
0.0
 11
5.4609968662
 21
4.3087655274
 31
0.0
  0
LINE
  5
234
330
1F
100
AcDbEntity
  8
0
  6
Continuous
 62
     7
370
    30
100
AcDbLine
 10
5.481357191
 20
4.2911539792
 30
0.0
 11
5.4609968662
 21
4.3029090392
 31
0.0
  0
LINE
  5
235
330
1F
100
AcDbEntity
  8
0
  6
Continuous
 62
     7
370
    30
100
AcDbLine
 10
5.481357191
 20
4.285297161
 30
0.0
 11
5.481357191
 21
4.2911539792
 31
0.0
  0
LINE
  5
236
330
1F
100
AcDbEntity
  8
0
  6
Continuous
 62
     7
370
    30
100
AcDbLine
 10
5.4609968662
 20
4.2735421009
 30
0.0
 11
5.481357191
 21
4.285297161
 31
0.0
  0
LINE
  5
237
330
1F
100
AcDbEntity
  8
0
  6
Continuous
 62
     7
370
    30
100
AcDbLine
 10
5.4609968662
 20
4.2676856128
 30
0.0
 11
5.4609968662
 21
4.2735421009
 31
0.0
  0
LINE
  5
238
330
1F
100
AcDbEntity
  8
0
  6
Continuous
 62
     7
370
    30
100
AcDbLine
 10
5.481357191
 20
4.2559305527
 30
0.0
 11
5.4609968662
 21
4.2676856128
 31
0.0
  0
LINE
  5
239
330
1F
100
AcDbEntity
  8
0
  6
Continuous
 62
     7
370
    30
100
AcDbLine
 10
5.481357191
 20
4.2500737437
 30
0.0
 11
5.481357191
 21
4.2559305527
 31
0.0
  0
LINE
  5
23A
330
1F
100
AcDbEntity
  8
0
  6
Continuous
 62
     7
370
    30
100
AcDbLine
 10
5.4609968662
 20
4.2383186837
 30
0.0
 11
5.481357191
 21
4.2500737437
 31
0.0
  0
LINE
  5
23B
330
1F
100
AcDbEntity
  8
0
  6
Continuous
 62
     7
370
    30
100
AcDbLine
 10
5.4609968662
 20
4.2324621955
 30
0.0
 11
5.4609968662
 21
4.2383186837
 31
0.0
  0
LINE
  5
23C
330
1F
100
AcDbEntity
  8
0
  6
Continuous
 62
     7
370
    30
100
AcDbLine
 10
5.481357191
 20
4.2207071263
 30
0.0
 11
5.4609968662
 21
4.2324621955
 31
0.0
  0
LINE
  5
23D
330
1F
100
AcDbEntity
  8
0
  6
Continuous
 62
     7
370
    30
100
AcDbLine
 10
5.481357191
 20
4.2148503173
 30
0.0
 11
5.481357191
 21
4.2207071263
 31
0.0
  0
LINE
  5
23E
330
1F
100
AcDbEntity
  8
0
  6
Continuous
 62
     7
370
    30
100
AcDbLine
 10
5.4609968662
 20
4.2030952481
 30
0.0
 11
5.481357191
 21
4.2148503173
 31
0.0
  0
LINE
  5
23F
330
1F
100
AcDbEntity
  8
0
  6
Continuous
 62
     7
370
    30
100
AcDbLine
 10
5.4609968662
 20
4.1972387691
 30
0.0
 11
5.4609968662
 21
4.2030952481
 31
0.0
  0
LINE
  5
240
330
1F
100
AcDbEntity
  8
0
  6
Continuous
 62
     7
370
    30
100
AcDbLine
 10
5.481357191
 20
4.1854837182
 30
0.0
 11
5.4609968662
 21
4.1972387691
 31
0.0
  0
LINE
  5
241
330
1F
100
AcDbEntity
  8
0
  6
Continuous
 62
     7
370
    30
100
AcDbLine
 10
5.481357191
 20
4.1796268909
 30
0.0
 11
5.481357191
 21
4.1854837182
 31
0.0
  0
LINE
  5
242
330
1F
100
AcDbEntity
  8
0
  6
Continuous
 62
     7
370
    30
100
AcDbLine
 10
5.4609968662
 20
4.16787184
 30
0.0
 11
5.481357191
 21
4.1796268909
 31
0.0
  0
LINE
  5
243
330
1F
100
AcDbEntity
  8
0
  6
Continuous
 62
     7
370
    30
100
AcDbLine
 10
5.4609968662
 20
4.1620153426
 30
0.0
 11
5.4609968662
 21
4.16787184
 31
0.0
  0
LINE
  5
244
330
1F
100
AcDbEntity
  8
0
  6
Continuous
 62
     7
370
    30
100
AcDbLine
 10
5.481358071
 20
4.1502598151
 30
0.0
 11
5.4609968662
 21
4.1620153426
 31
0.0
  0
LINE
  5
245
330
1F
100
AcDbEntity
  8
0
  6
Continuous
 62
     7
370
    30
100
AcDbLine
 10
5.481358071
 20
4.1443947012
 30
0.0
 11
5.481358071
 21
4.1502598151
 31
0.0
  0
LINE
  5
246
330
1F
100
AcDbEntity
  8
0
  6
Continuous
 62
     7
370
    30
100
AcDbLine
 10
5.469983029
 20
4.1378273187
 30
0.0
 11
5.481358071
 21
4.1443947012
 31
0.0
  0
ARC
  5
247
330
1F
100
AcDbEntity
  8
0
  6
Continuous
 62
     7
370
    30
100
AcDbCircle
 10
5.472927043
 20
4.106967433
 30
0.0
 40
0.0310000000000006
100
AcDbArc
 50
95.4495226951
 51
270.0
  0
LINE
  5
248
330
1F
100
AcDbEntity
  8
0
  6
Continuous
 62
     7
370
    30
100
AcDbLine
 10
5.6369270738
 20
4.075967425
 30
0.0
 11
5.472927035
 21
4.075967425
 31
0.0
  0
ARC
  5
249
330
1F
100
AcDbEntity
  8
0
  6
Continuous
 62
     7
370
    30
100
AcDbCircle
 10
5.636927043
 20
4.106967433
 30
0.0
 40
0.0310000000000006
100
AcDbArc
 50
270.0
 51
75.2623825484
  0
LINE
  5
24A
330
1F
100
AcDbEntity
  8
0
  6
Continuous
 62
     7
370
    30
100
AcDbLine
 10
5.6488881157
 20
4.1520383846
 30
0.0
 11
5.6488881157
 21
4.1461819056
 31
0.0
  0
LINE
  5
24B
330
1F
100
AcDbEntity
  8
0
  6
Continuous
 62
     7
370
    30
100
AcDbLine
 10
5.6285277175
 20
4.1637934538
 30
0.0
 11
5.6488881157
 21
4.1520383846
 31
0.0
  0
LINE
  5
24C
330
1F
100
AcDbEntity
  8
0
  6
Continuous
 62
     7
370
    30
100
AcDbLine
 10
5.6285277175
 20
4.1696502628
 30
0.0
 11
5.6285277175
 21
4.1637934538
 31
0.0
  0
LINE
  5
24D
330
1F
100
AcDbEntity
  8
0
  6
Continuous
 62
     7
370
    30
100
AcDbLine
 10
5.6488881157
 20
4.181405332
 30
0.0
 11
5.6285277175
 21
4.1696502628
 31
0.0
  0
LINE
  5
24E
330
1F
100
AcDbEntity
  8
0
  6
Continuous
 62
     7
370
    30
100
AcDbLine
 10
5.6488881157
 20
4.187261811
 30
0.0
 11
5.6488881157
 21
4.181405332
 31
0.0
  0
LINE
  5
24F
330
1F
100
AcDbEntity
  8
0
  6
Continuous
 62
     7
370
    30
100
AcDbLine
 10
5.6285277175
 20
4.1990168619
 30
0.0
 11
5.6488881157
 21
4.187261811
 31
0.0
  0
LINE
  5
250
330
1F
100
AcDbEntity
  8
0
  6
Continuous
 62
     7
370
    30
100
AcDbLine
 10
5.6285277175
 20
4.2048736892
 30
0.0
 11
5.6285277175
 21
4.1990168619
 31
0.0
  0
LINE
  5
251
330
1F
100
AcDbEntity
  8
0
  6
Continuous
 62
     7
370
    30
100
AcDbLine
 10
5.6488881157
 20
4.2166287401
 30
0.0
 11
5.6285277175
 21
4.2048736892
 31
0.0
  0
LINE
  5
252
330
1F
100
AcDbEntity
  8
0
  6
Continuous
 62
     7
370
    30
100
AcDbLine
 10
5.6488881157
 20
4.2224852374
 30
0.0
 11
5.6488881157
 21
4.2166287401
 31
0.0
  0
LINE
  5
253
330
1F
100
AcDbEntity
  8
0
  6
Continuous
 62
     7
370
    30
100
AcDbLine
 10
5.6285277175
 20
4.2342402883
 30
0.0
 11
5.6488881157
 21
4.2224852374
 31
0.0
  0
LINE
  5
254
330
1F
100
AcDbEntity
  8
0
  6
Continuous
 62
     7
370
    30
100
AcDbLine
 10
5.6285277175
 20
4.2400971065
 30
0.0
 11
5.6285277175
 21
4.2342402883
 31
0.0
  0
LINE
  5
255
330
1F
100
AcDbEntity
  8
0
  6
Continuous
 62
     7
370
    30
100
AcDbLine
 10
5.6488881157
 20
4.2518521665
 30
0.0
 11
5.6285277175
 21
4.2400971065
 31
0.0
  0
LINE
  5
256
330
1F
100
AcDbEntity
  8
0
  6
Continuous
 62
     7
370
    30
100
AcDbLine
 10
5.6488881157
 20
4.2577086547
 30
0.0
 11
5.6488881157
 21
4.2518521665
 31
0.0
  0
LINE
  5
257
330
1F
100
AcDbEntity
  8
0
  6
Continuous
 62
     7
370
    30
100
AcDbLine
 10
5.6285277175
 20
4.2694637147
 30
0.0
 11
5.6488881157
 21
4.2577086547
 31
0.0
  0
LINE
  5
258
330
1F
100
AcDbEntity
  8
0
  6
Continuous
 62
     7
370
    30
100
AcDbLine
 10
5.6285277175
 20
4.2753205329
 30
0.0
 11
5.6285277175
 21
4.2694637147
 31
0.0
  0
LINE
  5
259
330
1F
100
AcDbEntity
  8
0
  6
Continuous
 62
     7
370
    30
100
AcDbLine
 10
5.6488881157
 20
4.2870755929
 30
0.0
 11
5.6285277175
 21
4.2753205329
 31
0.0
  0
LINE
  5
25A
330
1F
100
AcDbEntity
  8
0
  6
Continuous
 62
     7
370
    30
100
AcDbLine
 10
5.6488881157
 20
4.2929320811
 30
0.0
 11
5.6488881157
 21
4.2870755929
 31
0.0
  0
LINE
  5
25B
330
1F
100
AcDbEntity
  8
0
  6
Continuous
 62
     7
370
    30
100
AcDbLine
 10
5.6285277175
 20
4.3046871412
 30
0.0
 11
5.6488881157
 21
4.2929320811
 31
0.0
  0
LINE
  5
25C
330
1F
100
AcDbEntity
  8
0
  6
Continuous
 62
     7
370
    30
100
AcDbLine
 10
5.6285277175
 20
4.3105439593
 30
0.0
 11
5.6285277175
 21
4.3046871412
 31
0.0
  0
LINE
  5
25D
330
1F
100
AcDbEntity
  8
0
  6
Continuous
 62
     7
370
    30
100
AcDbLine
 10
5.6488881157
 20
4.3222990148
 30
0.0
 11
5.6285277175
 21
4.3105439593
 31
0.0
  0
LINE
  5
25E
330
1F
100
AcDbEntity
  8
0
  6
Continuous
 62
     7
370
    30
100
AcDbLine
 10
5.6488881157
 20
4.328155503
 30
0.0
 11
5.6488881157
 21
4.3222990148
 31
0.0
  0
LINE
  5
25F
330
1F
100
AcDbEntity
  8
0
  6
Continuous
 62
     7
370
    30
100
AcDbLine
 10
5.6285277175
 20
4.339910563
 30
0.0
 11
5.6488881157
 21
4.328155503
 31
0.0
  0
LINE
  5
260
330
1F
100
AcDbEntity
  8
0
  6
Continuous
 62
     7
370
    30
100
AcDbLine
 10
5.6285277175
 20
4.3457673812
 30
0.0
 11
5.6285277175
 21
4.339910563
 31
0.0
  0
LINE
  5
261
330
1F
100
AcDbEntity
  8
0
  6
Continuous
 62
     7
370
    30
100
AcDbLine
 10
5.6488881157
 20
4.3575224412
 30
0.0
 11
5.6285277175
 21
4.3457673812
 31
0.0
  0
LINE
  5
262
330
1F
100
AcDbEntity
  8
0
  6
Continuous
 62
     7
370
    30
100
AcDbLine
 10
5.6285277175
 20
4.3751339863
 30
0.0
 11
5.6488881157
 21
4.3633789271
 31
0.0
  0
LINE
  5
263
330
1F
100
AcDbEntity
  8
0
  6
Continuous
 62
     7
370
    30
100
AcDbLine
 10
5.6285277175
 20
4.3809908042
 30
0.0
 11
5.6285277175
 21
4.3751339863
 31
0.0
  0
LINE
  5
264
330
1F
100
AcDbEntity
  8
0
  6
Continuous
 62
     7
370
    30
100
AcDbLine
 10
5.6458077846
 20
4.3909674334
 30
0.0
 11
5.6285277175
 21
4.3809908042
 31
0.0
  0
LINE
  5
265
330
1F
100
AcDbEntity
  8
0
  6
Continuous
 62
     7
370
    30
100
AcDbLine
 10
5.742927056
 20
4.3909674334
 30
0.0
 11
5.6458077846
 21
4.3909674334
 31
0.0
  0
ARC
  5
266
330
1F
100
AcDbEntity
  8
0
  6
Continuous
 62
     7
370
    30
100
AcDbCircle
 10
5.742927043
 20
4.328967433
 30
0.0
 40
0.0619999999999994
100
AcDbArc
 50
360.0
 51
90.0
  0
LINE
  5
267
330
1F
100
AcDbEntity
  8
0
  6
Continuous
 62
     7
370
    30
100
AcDbLine
 10
5.8049270331
 20
4.3289674311
 30
0.0
 11
5.8049270331
 21
4.3273784536
 31
0.0
  0
ARC
  5
268
330
1F
100
AcDbEntity
  8
0
  6
Continuous
 62
     7
370
    30
100
AcDbCircle
 10
5.794927043
 20
4.3273784536
 30
0.0
 40
0.0099999999999901
100
AcDbArc
 50
246.7301760415
 51
0.0
  0
ARC
  5
269
330
1F
100
AcDbEntity
  8
0
  6
Continuous
 62
     7
370
    30
100
AcDbCircle
 10
5.762927043
 20
4.252967433
 30
0.0
 40
0.0710000000000088
100
AcDbArc
 50
66.7301760415
 51
232.4184423812
  0
ARC
  5
26A
330
1F
100
AcDbEntity
  8
0
  6
Continuous
 62
     7
370
    30
100
AcDbCircle
 10
5.707427043
 20
4.1808512073
 30
0.0
 40
0.0200000000000005
100
AcDbArc
 50
0.0
 51
52.4184423812
  0
LINE
  5
26B
330
1F
100
AcDbEntity
  8
0
  6
Continuous
 62
     7
370
    30
100
AcDbLine
 10
5.7274270617
 20
4.0159674448
 30
0.0
 11
5.3824270472
 21
4.0159674448
 31
0.0
  0
ARC
  5
26C
330
1F
100
AcDbEntity
  8
0
  6
Continuous
 62
     7
370
    30
100
AcDbCircle
 10
5.366927043
 20
4.328967433
 30
0.0
 40
0.0620000000000003
100
AcDbArc
 50
90.0
 51
180.0
  0
LINE
  5
26D
330
1F
100
AcDbEntity
  8
0
  6
Continuous
 62
     7
370
    30
100
AcDbLine
 10
5.3049270391
 20
4.3289674311
 30
0.0
 11
5.3049270391
 21
4.3273784536
 31
0.0
  0
ARC
  5
26E
330
1F
100
AcDbEntity
  8
0
  6
Continuous
 62
     7
370
    30
100
AcDbCircle
 10
5.314927043
 20
4.3273784536
 30
0.0
 40
0.0099999999999989
100
AcDbArc
 50
180.0
 51
293.2698239585
  0
ARC
  5
26F
330
1F
100
AcDbEntity
  8
0
  6
Continuous
 62
     7
370
    30
100
AcDbCircle
 10
5.346927043
 20
4.252967433
 30
0.0
 40
0.0710000000000104
100
AcDbArc
 50
307.5815576188
 51
113.2698239585
  0
ARC
  5
270
330
1F
100
AcDbEntity
  8
0
  6
Continuous
 62
     7
370
    30
100
AcDbCircle
 10
5.402427043
 20
4.1808512073
 30
0.0
 40
0.0199999999999991
100
AcDbArc
 50
127.5815576188
 51
180.0
  0
LINE
  5
271
330
1F
100
AcDbEntity
  8
0
  6
Continuous
 62
     7
370
    30
100
AcDbLine
 10
5.3824270472
 20
4.1808512134
 30
0.0
 11
5.3824270472
 21
4.0159674448
 31
0.0
  0
LINE
  5
272
330
1F
100
AcDbEntity
  8
0
  6
Continuous
 62
     7
370
    30
100
AcDbLine
 10
5.6488881157
 20
4.1461819056
 30
0.0
 11
5.6442868688
 21
4.1435253629
 31
0.0
  0
LINE
  5
273
330
1F
100
AcDbEntity
  8
0
  6
Continuous
 62
     7
370
    30
100
AcDbLine
 10
5.7274270617
 20
4.0159674448
 30
0.0
 11
5.7274270617
 21
4.1808512134
 31
0.0
  0
ARC
  5
274
330
1F
100
AcDbEntity
  8
0
  6
Continuous
 62
     7
370
    30
100
AcDbCircle
 10
5.653959978
 20
4.1409894551
 30
0.0
 40
0.0100000000000086
100
AcDbArc
 50
165.3098749059
 51
203.8403348298
  0
LINE
  5
275
330
1F
100
AcDbEntity
  8
0
  6
Continuous
 62
     7
370
    30
100
AcDbLine
 10
5.6488881157
 20
4.3633789271
 30
0.0
 11
5.6488881157
 21
4.3575224412
 31
0.0
  0
LINE
  5
276
330
1F
100
AcDbEntity
  8
0
  6
Continuous
 62
     7
370
    30
100
AcDbLine
 10
6.8049270943
 20
3.2839674443
 30
0.0
 11
6.8049270943
 21
3.1909674053
 31
0.0
  0
LINE
  5
277
330
1F
100
AcDbEntity
  8
0
  6
Continuous
 62
     7
370
    30
100
AcDbLine
 10
5.9299270224
 20
3.1909674053
 30
0.0
 11
6.8049270943
 21
3.1909674053
 31
0.0
  0
LINE
  5
278
330
1F
100
AcDbEntity
  8
0
  6
Continuous
 62
     7
370
    30
100
AcDbLine
 10
5.9299270224
 20
3.240967401
 30
0.0
 11
5.9299270224
 21
3.1909674053
 31
0.0
  0
ARC
  5
279
330
1F
100
AcDbEntity
  8
0
  6
Continuous
 62
     7
370
    30
100
AcDbCircle
 10
6.218927043
 20
4.3826601337
 30
0.0
 40
0.0449999999999999
100
AcDbArc
 50
180.0
 51
263.3002348222
  0
LINE
  5
27A
330
1F
100
AcDbEntity
  8
0
  6
Continuous
 62
     7
370
    30
100
AcDbLine
 10
6.1739270104
 20
4.3826601337
 30
0.0
 11
6.1739270104
 21
4.4579674371
 31
0.0
  0
ARC
  5
27B
330
1F
100
AcDbEntity
  8
0
  6
Continuous
 62
     7
370
    30
100
AcDbCircle
 10
6.183927043
 20
4.457967433
 30
0.0
 40
0.0100000000000007
100
AcDbArc
 50
90.0
 51
180.0
  0
LINE
  5
27C
330
1F
100
AcDbEntity
  8
0
  6
Continuous
 62
     7
370
    30
100
AcDbLine
 10
6.1839270682
 20
4.4679674308
 30
0.0
 11
6.1903630205
 21
4.4679674308
 31
0.0
  0
LINE
  5
27D
330
1F
100
AcDbEntity
  8
0
  6
Continuous
 62
     7
370
    30
100
AcDbLine
 10
6.1903630205
 20
4.4679674308
 30
0.0
 11
6.2239270061
 21
4.4279674333
 31
0.0
  0
LINE
  5
27E
330
1F
100
AcDbEntity
  8
0
  6
Continuous
 62
     7
370
    30
100
AcDbLine
 10
6.2239270061
 20
4.4279674333
 30
0.0
 11
6.2151106813
 21
4.377967433
 31
0.0
  0
LINE
  5
27F
330
1F
100
AcDbEntity
  8
0
  6
Continuous
 62
     7
370
    30
100
AcDbLine
 10
6.2151106813
 20
4.377967433
 30
0.0
 11
6.2799270658
 21
4.377967433
 31
0.0
  0
LINE
  5
280
330
1F
100
AcDbEntity
  8
0
  6
Continuous
 62
     7
370
    30
100
AcDbLine
 10
6.2799270658
 20
4.377967433
 30
0.0
 11
6.2799270658
 21
5.0029674529
 31
0.0
  0
LINE
  5
281
330
1F
100
AcDbEntity
  8
0
  6
Continuous
 62
     7
370
    30
100
AcDbLine
 10
6.2799270658
 20
5.0029674529
 30
0.0
 11
6.3299270616
 21
5.0029674529
 31
0.0
  0
ARC
  5
282
330
1F
100
AcDbEntity
  8
0
  6
Continuous
 62
     7
370
    30
100
AcDbCircle
 10
6.204927043
 20
4.2634795984
 30
0.0
 40
0.0750000000000002
100
AcDbArc
 50
0.0
 51
83.3002348222
  0
LINE
  5
283
330
1F
100
AcDbEntity
  8
0
  6
Continuous
 62
     7
370
    30
100
AcDbLine
 10
6.2799270658
 20
3.5865856084
 30
0.0
 11
6.2799270658
 21
4.2634796005
 31
0.0
  0
ARC
  5
284
330
1F
100
AcDbEntity
  8
0
  6
Continuous
 62
     7
370
    30
100
AcDbCircle
 10
6.352927043
 20
3.502967433
 30
0.0
 40
0.1110000000000002
100
AcDbArc
 50
131.1214761682
 51
228.8785238318
  0
LINE
  5
285
330
1F
100
AcDbEntity
  8
0
  6
Continuous
 62
     7
370
    30
100
AcDbLine
 10
6.2799270658
 20
3.240967401
 30
0.0
 11
6.2799270658
 21
3.4193492603
 31
0.0
  0
LINE
  5
286
330
1F
100
AcDbEntity
  8
0
  6
Continuous
 62
     7
370
    30
100
AcDbLine
 10
5.9299270224
 20
3.240967401
 30
0.0
 11
6.2799270658
 21
3.240967401
 31
0.0
  0
LINE
  5
287
330
1F
100
AcDbEntity
  8
0
  6
Continuous
 62
     7
370
    30
100
AcDbLine
 10
6.7549270986
 20
3.2839674443
 30
0.0
 11
6.8049270943
 21
3.2839674443
 31
0.0
  0
LINE
  5
288
330
1F
100
AcDbEntity
  8
0
  6
Continuous
 62
     7
370
    30
100
AcDbLine
 10
6.7549270986
 20
3.240967401
 30
0.0
 11
6.7549270986
 21
3.2839674443
 31
0.0
  0
LINE
  5
289
330
1F
100
AcDbEntity
  8
0
  6
Continuous
 62
     7
370
    30
100
AcDbLine
 10
6.3299270616
 20
3.240967401
 30
0.0
 11
6.7549270986
 21
3.240967401
 31
0.0
  0
LINE
  5
28A
330
1F
100
AcDbEntity
  8
0
  6
Continuous
 62
     7
370
    30
100
AcDbLine
 10
6.3299270616
 20
3.3943764688
 30
0.0
 11
6.3299270616
 21
3.240967401
 31
0.0
  0
ARC
  5
28B
330
1F
100
AcDbEntity
  8
0
  6
Continuous
 62
     7
370
    30
100
AcDbCircle
 10
6.352927043
 20
3.502967433
 30
0.0
 40
0.1110000000000001
100
AcDbArc
 50
258.0412625374
 51
31.5198585799
  0
ARC
  5
28C
330
1F
100
AcDbEntity
  8
0
  6
Continuous
 62
     7
370
    30
100
AcDbCircle
 10
6.4262385184
 20
3.5479277218
 30
0.0
 40
0.025
100
AcDbArc
 50
31.5198585799
 51
211.5198585799
  0
ARC
  5
28D
330
1F
100
AcDbEntity
  8
0
  6
Continuous
 62
     7
370
    30
100
AcDbCircle
 10
6.352927043
 20
3.502967433
 30
0.0
 40
0.0610000000000007
100
AcDbArc
 50
112.1510214415
 51
31.5198585799
  0
LINE
  5
28E
330
1F
100
AcDbEntity
  8
0
  6
Continuous
 62
     7
370
    30
100
AcDbLine
 10
6.3299270616
 20
5.0029674529
 30
0.0
 11
6.3299270616
 21
3.5594652017
 31
0.0
  0
LINE
  5
28F
330
1F
100
AcDbEntity
  8
0
  6
Continuous
 62
     7
370
    30
100
AcDbLine
 10
4.7799270427
 20
3.5594652017
 30
0.0
 11
4.7799270427
 21
5.0029674529
 31
0.0
  0
LINE
  5
290
330
1F
100
AcDbEntity
  8
0
  6
Continuous
 62
     7
370
    30
100
AcDbLine
 10
4.7799270427
 20
5.0029674529
 30
0.0
 11
4.829927043
 21
5.0029674529
 31
0.0
  0
LINE
  5
291
330
1F
100
AcDbEntity
  8
0
  6
Continuous
 62
     7
370
    30
100
AcDbLine
 10
4.829927043
 20
4.377967433
 30
0.0
 11
4.8947433909
 21
4.377967433
 31
0.0
  0
LINE
  5
292
330
1F
100
AcDbEntity
  8
0
  6
Continuous
 62
     7
370
    30
100
AcDbLine
 10
4.8947433909
 20
4.377967433
 30
0.0
 11
4.8859270432
 21
4.4279674333
 31
0.0
  0
LINE
  5
293
330
1F
100
AcDbEntity
  8
0
  6
Continuous
 62
     7
370
    30
100
AcDbLine
 10
4.8859270432
 20
4.4279674333
 30
0.0
 11
4.9194910242
 21
4.4679674308
 31
0.0
  0
LINE
  5
294
330
1F
100
AcDbEntity
  8
0
  6
Continuous
 62
     7
370
    30
100
AcDbLine
 10
4.9194910242
 20
4.4679674308
 30
0.0
 11
4.9259270407
 21
4.4679674308
 31
0.0
  0
ARC
  5
295
330
1F
100
AcDbEntity
  8
0
  6
Continuous
 62
     7
370
    30
100
AcDbCircle
 10
4.925927043
 20
4.457967433
 30
0.0
 40
0.0100000000000007
100
AcDbArc
 50
0.0
 51
90.0
  0
LINE
  5
296
330
1F
100
AcDbEntity
  8
0
  6
Continuous
 62
     7
370
    30
100
AcDbLine
 10
4.9359270435
 20
4.4579674371
 30
0.0
 11
4.9359270435
 21
4.3826601337
 31
0.0
  0
ARC
  5
297
330
1F
100
AcDbEntity
  8
0
  6
Continuous
 62
     7
370
    30
100
AcDbCircle
 10
4.890927043
 20
4.3826601337
 30
0.0
 40
0.044999999999999
100
AcDbArc
 50
276.6997651778
 51
0.0
  0
ARC
  5
298
330
1F
100
AcDbEntity
  8
0
  6
Continuous
 62
     7
370
    30
100
AcDbCircle
 10
4.904927043
 20
4.2634795984
 30
0.0
 40
0.0750000000000002
100
AcDbArc
 50
96.6997651778
 51
180.0
  0
LINE
  5
299
330
1F
100
AcDbEntity
  8
0
  6
Continuous
 62
     7
370
    30
100
AcDbLine
 10
4.829927043
 20
4.2634796005
 30
0.0
 11
4.829927043
 21
3.5865856084
 31
0.0
  0
ARC
  5
29A
330
1F
100
AcDbEntity
  8
0
  6
Continuous
 62
     7
370
    30
100
AcDbCircle
 10
4.756927043
 20
3.502967433
 30
0.0
 40
0.1110000000000002
100
AcDbArc
 50
311.1214761682
 51
48.8785238318
  0
LINE
  5
29B
330
1F
100
AcDbEntity
  8
0
  6
Continuous
 62
     7
370
    30
100
AcDbLine
 10
4.829927043
 20
3.4193492603
 30
0.0
 11
4.829927043
 21
3.240967401
 31
0.0
  0
LINE
  5
29C
330
1F
100
AcDbEntity
  8
0
  6
Continuous
 62
     7
370
    30
100
AcDbLine
 10
4.829927043
 20
3.240967401
 30
0.0
 11
5.1799270498
 21
3.240967401
 31
0.0
  0
LINE
  5
29D
330
1F
100
AcDbEntity
  8
0
  6
Continuous
 62
     7
370
    30
100
AcDbLine
 10
5.1799270498
 20
3.240967401
 30
0.0
 11
5.1799270498
 21
3.1909674053
 31
0.0
  0
LINE
  5
29E
330
1F
100
AcDbEntity
  8
0
  6
Continuous
 62
     7
370
    30
100
AcDbLine
 10
4.3049270512
 20
3.1909674053
 30
0.0
 11
5.1799270498
 21
3.1909674053
 31
0.0
  0
LINE
  5
29F
330
1F
100
AcDbEntity
  8
0
  6
Continuous
 62
     7
370
    30
100
AcDbLine
 10
4.3049270512
 20
3.2839674443
 30
0.0
 11
4.3049270512
 21
3.1909674053
 31
0.0
  0
LINE
  5
2A0
330
1F
100
AcDbEntity
  8
0
  6
Continuous
 62
     7
370
    30
100
AcDbLine
 10
4.3549270469
 20
3.2839674443
 30
0.0
 11
4.3549270469
 21
3.240967401
 31
0.0
  0
LINE
  5
2A1
330
1F
100
AcDbEntity
  8
0
  6
Continuous
 62
     7
370
    30
100
AcDbLine
 10
4.3549270469
 20
3.240967401
 30
0.0
 11
4.7799270427
 21
3.240967401
 31
0.0
  0
LINE
  5
2A2
330
1F
100
AcDbEntity
  8
0
  6
Continuous
 62
     7
370
    30
100
AcDbLine
 10
4.7799270427
 20
3.240967401
 30
0.0
 11
4.7799270427
 21
3.3943764688
 31
0.0
  0
ARC
  5
2A3
330
1F
100
AcDbEntity
  8
0
  6
Continuous
 62
     7
370
    30
100
AcDbCircle
 10
4.756927043
 20
3.502967433
 30
0.0
 40
0.1110000000000001
100
AcDbArc
 50
148.4801414201
 51
281.9587374626
  0
ARC
  5
2A4
330
1F
100
AcDbEntity
  8
0
  6
Continuous
 62
     7
370
    30
100
AcDbCircle
 10
4.6836155676
 20
3.5479277218
 30
0.0
 40
0.025
100
AcDbArc
 50
328.4801414201
 51
148.4801414201
  0
ARC
  5
2A5
330
1F
100
AcDbEntity
  8
0
  6
Continuous
 62
     7
370
    30
100
AcDbCircle
 10
4.756927043
 20
3.502967433
 30
0.0
 40
0.0610000000000009
100
AcDbArc
 50
148.4801414201
 51
67.8489785585
  0
LINE
  5
2A6
330
1F
100
AcDbEntity
  8
0
  6
Continuous
 62
     7
370
    30
100
AcDbLine
 10
4.829927043
 20
5.0029674529
 30
0.0
 11
4.829927043
 21
4.377967433
 31
0.0
  0
LINE
  5
2A7
330
1F
100
AcDbEntity
  8
0
  6
Continuous
 62
     7
370
    30
100
AcDbLine
 10
4.3049270512
 20
3.2839674443
 30
0.0
 11
4.3549270469
 21
3.2839674443
 31
0.0
  0
LINE
  5
2A8
330
1F
100
AcDbEntity
  8
0
  6
Continuous
 62
     7
370
    30
100
AcDbLine
 10
4.8929270415
 20
5.0029674529
 30
0.0
 11
4.829927043
 21
5.0029674529
 31
0.0
  0
LINE
  5
2A9
330
1F
100
AcDbEntity
  8
0
  6
Continuous
 62
     7
370
    30
100
AcDbLine
 10
4.8929270415
 20
5.0029674529
 30
0.0
 11
4.8929270415
 21
4.4363097094
 31
0.0
  0
LINE
  5
2AA
330
1F
100
AcDbEntity
  8
0
  6
Continuous
 62
     7
370
    30
100
AcDbLine
 10
4.8929270415
 20
4.3882684599
 30
0.0
 11
4.8929270415
 21
4.377967433
 31
0.0
  0
LINE
  5
2AB
330
1F
100
AcDbEntity
  8
0
  6
Continuous
 62
     7
370
    30
100
AcDbLine
 10
6.2169269803
 20
5.0029674529
 30
0.0
 11
6.2169269803
 21
4.4363097094
 31
0.0
  0
LINE
  5
2AC
330
1F
100
AcDbEntity
  8
0
  6
Continuous
 62
     7
370
    30
100
AcDbLine
 10
6.2169269803
 20
4.3882684599
 30
0.0
 11
6.2169269803
 21
4.377967433
 31
0.0
  0
LINE
  5
2AD
330
1F
100
AcDbEntity
  8
0
  6
Continuous
 62
     7
370
    30
100
AcDbLine
 10
6.2169269803
 20
5.0029674529
 30
0.0
 11
6.2799270658
 21
5.0029674529
 31
0.0
  0
LINE
  5
2AE
330
1F
100
AcDbEntity
  8
0
  6
Continuous
 62
     7
370
    30
100
AcDbLine
 10
6.2019271136
 20
5.0029674529
 30
0.0
 11
6.2019271136
 21
4.5029674314
 31
0.0
  0
LINE
  5
2AF
330
1F
100
AcDbEntity
  8
0
  6
Continuous
 62
     7
370
    30
100
AcDbLine
 10
6.2169269803
 20
5.0029674529
 30
0.0
 11
6.2019271136
 21
5.0029674529
 31
0.0
  0
LINE
  5
2B0
330
1F
100
AcDbEntity
  8
0
  6
Continuous
 62
     7
370
    30
100
AcDbLine
 10
6.2019271136
 20
4.5029674314
 30
0.0
 11
6.2169269803
 21
4.5029674314
 31
0.0
  0
LINE
  5
2B1
330
1F
100
AcDbEntity
  8
0
  6
Continuous
 62
     7
370
    30
100
AcDbLine
 10
4.9079270411
 20
5.0029674529
 30
0.0
 11
4.8929270415
 21
5.0029674529
 31
0.0
  0
LINE
  5
2B2
330
1F
100
AcDbEntity
  8
0
  6
Continuous
 62
     7
370
    30
100
AcDbLine
 10
4.9079270411
 20
4.5029674314
 30
0.0
 11
4.9079270411
 21
5.0029674529
 31
0.0
  0
LINE
  5
2B3
330
1F
100
AcDbEntity
  8
0
  6
Continuous
 62
     7
370
    30
100
AcDbLine
 10
4.8929270415
 20
4.5029674314
 30
0.0
 11
4.9079270411
 21
4.5029674314
 31
0.0
  0
LINE
  5
2B4
330
1F
100
AcDbEntity
  8
0
  6
Continuous
 62
     7
370
    30
100
AcDbLine
 10
6.1489270858
 20
5.0189674281
 30
0.0
 11
6.1489270858
 21
5.0969674537
 31
0.0
  0
LINE
  5
2B5
330
1F
100
AcDbEntity
  8
0
  6
Continuous
 62
     7
370
    30
100
AcDbLine
 10
4.9609270414
 20
5.0189674281
 30
0.0
 11
6.1489270858
 21
5.0189674281
 31
0.0
  0
LINE
  5
2B6
330
1F
100
AcDbEntity
  8
0
  6
Continuous
 62
     7
370
    30
100
AcDbLine
 10
4.9609270414
 20
5.0969674537
 30
0.0
 11
4.9609270414
 21
5.0189674281
 31
0.0
  0
LINE
  5
2B7
330
1F
100
AcDbEntity
  8
0
  6
Continuous
 62
     7
370
    30
100
AcDbLine
 10
4.9609270414
 20
5.0969674537
 30
0.0
 11
6.1489270858
 21
5.0969674537
 31
0.0
  0
LINE
  5
2B8
330
1F
100
AcDbEntity
  8
0
  6
Continuous
 62
     7
370
    30
100
AcDbLine
 10
4.9079270411
 20
5.0029674529
 30
0.0
 11
4.9609270414
 21
5.0029674529
 31
0.0
  0
LINE
  5
2B9
330
1F
100
AcDbEntity
  8
0
  6
Continuous
 62
     7
370
    30
100
AcDbLine
 10
4.9609270414
 20
5.0189674281
 30
0.0
 11
4.9609270414
 21
5.0029674529
 31
0.0
  0
LINE
  5
2BA
330
1F
100
AcDbEntity
  8
0
  6
Continuous
 62
     7
370
    30
100
AcDbLine
 10
6.2019271136
 20
4.5029674314
 30
0.0
 11
5.6691671147
 21
4.5029674314
 31
0.0
  0
LINE
  5
2BB
330
1F
100
AcDbEntity
  8
0
  6
Continuous
 62
     7
370
    30
100
AcDbLine
 10
5.652202964
 20
4.5029674314
 30
0.0
 11
5.4576511448
 21
4.5029674314
 31
0.0
  0
LINE
  5
2BC
330
1F
100
AcDbEntity
  8
0
  6
Continuous
 62
     7
370
    30
100
AcDbLine
 10
5.4406869575
 20
4.5029674314
 30
0.0
 11
4.9079270411
 21
4.5029674314
 31
0.0
  0
LINE
  5
2BD
330
1F
100
AcDbEntity
  8
0
  6
Continuous
 62
     7
370
    30
100
AcDbLine
 10
6.1489270858
 20
5.0029674529
 30
0.0
 11
6.1489270858
 21
5.0189674281
 31
0.0
  0
LINE
  5
2BE
330
1F
100
AcDbEntity
  8
0
  6
Continuous
 62
     7
370
    30
100
AcDbLine
 10
6.1489270858
 20
5.0029674529
 30
0.0
 11
6.2019271136
 21
5.0029674529
 31
0.0
  0
LINE
  5
2BF
330
1F
100
AcDbEntity
  8
0
  6
Continuous
 62
     7
370
    30
100
AcDbLine
 10
5.8049270331
 20
4.4689674292
 30
0.0
 11
5.8049270331
 21
4.5029674314
 31
0.0
  0
LINE
  5
2C0
330
1F
100
AcDbEntity
  8
0
  6
Continuous
 62
     7
370
    30
100
AcDbLine
 10
5.3049270391
 20
4.5029674314
 30
0.0
 11
5.3049270391
 21
4.4689674292
 31
0.0
  0
LINE
  5
2C1
330
1F
100
AcDbEntity
  8
0
  6
Continuous
 62
     7
370
    30
100
AcDbLine
 10
5.8049270331
 20
4.3909674334
 30
0.0
 11
5.742927056
 21
4.3909674334
 31
0.0
  0
LINE
  5
2C2
330
1F
100
AcDbEntity
  8
0
  6
Continuous
 62
     7
370
    30
100
AcDbLine
 10
5.6458077846
 20
4.3909674334
 30
0.0
 11
5.6258708082
 21
4.3909674334
 31
0.0
  0
LINE
  5
2C3
330
1F
100
AcDbEntity
  8
0
  6
Continuous
 62
     7
370
    30
100
AcDbLine
 10
5.4839833007
 20
4.3909674334
 30
0.0
 11
5.481357191
 21
4.3909674334
 31
0.0
  0
LINE
  5
2C4
330
1F
100
AcDbEntity
  8
0
  6
Continuous
 62
     7
370
    30
100
AcDbLine
 10
5.3669270529
 20
4.3909674334
 30
0.0
 11
5.3049270391
 21
4.3909674334
 31
0.0
  0
LINE
  5
2C5
330
1F
100
AcDbEntity
  8
0
  6
Continuous
 62
     7
370
    30
100
AcDbLine
 10
5.3049270391
 20
4.3909674334
 30
0.0
 11
5.3049270391
 21
4.4320153636
 31
0.0
  0
LINE
  5
2C6
330
1F
100
AcDbEntity
  8
0
  6
Continuous
 62
     7
370
    30
100
AcDbLine
 10
5.3049270391
 20
4.4451300721
 30
0.0
 11
5.3049270391
 21
4.4689674292
 31
0.0
  0
LINE
  5
2C7
330
1F
100
AcDbEntity
  8
0
  6
Continuous
 62
     7
370
    30
100
AcDbLine
 10
5.8049270331
 20
4.4689674292
 30
0.0
 11
5.8049270331
 21
4.4451300721
 31
0.0
  0
LINE
  5
2C8
330
1F
100
AcDbEntity
  8
0
  6
Continuous
 62
     7
370
    30
100
AcDbLine
 10
5.8049270331
 20
4.4320153636
 30
0.0
 11
5.8049270331
 21
4.3909674334
 31
0.0
  0
LINE
  5
2C9
330
1F
100
AcDbEntity
  8
0
  6
Continuous
 62
     8
370
    30
100
AcDbLine
 10
5.7327599468
 20
5.7199120374
 30
0.0
 11
5.3770941254
 21
5.7199120374
 31
0.0
  0
LINE
  5
2CA
330
1F
100
AcDbEntity
  8
0
  6
Continuous
 62
     8
370
    30
100
AcDbLine
 10
5.3684270322
 20
3.9677010657
 30
0.0
 11
5.74142704
 21
3.9677010657
 31
0.0
  0
LINE
  5
2CB
330
1F
100
AcDbEntity
  8
0
  6
Continuous
 62
     8
370
    30
100
AcDbLine
 10
5.3789936202
 20
3.9500655928
 30
0.0
 11
5.7308604887
 21
3.9500655928
 31
0.0
  0
LINE
  5
2CC
330
1F
100
AcDbEntity
  8
0
  6
Continuous
 62
     8
370
    30
100
AcDbLine
 10
5.3049270391
 20
4.4689674292
 30
0.0
 11
5.3712678227
 21
4.4689674292
 31
0.0
  0
LINE
  5
2CD
330
1F
100
AcDbEntity
  8
0
  6
Continuous
 62
     8
370
    30
100
AcDbLine
 10
5.4068706348
 20
4.4689674292
 30
0.0
 11
5.4747456807
 21
4.4689674292
 31
0.0
  0
LINE
  5
2CE
330
1F
100
AcDbEntity
  8
0
  6
Continuous
 62
     8
370
    30
100
AcDbLine
 10
5.6351083548
 20
4.4689674292
 30
0.0
 11
5.7029834374
 21
4.4689674292
 31
0.0
  0
LINE
  5
2CF
330
1F
100
AcDbEntity
  8
0
  6
Continuous
 62
     8
370
    30
100
AcDbLine
 10
5.7385862861
 20
4.4689674292
 30
0.0
 11
5.8049270331
 21
4.4689674292
 31
0.0
  0
MTEXT
  5
2D1
330
1F
100
AcDbEntity
  8
FORMAT
100
AcDbMText
 10
4.94297302
 20
2.8769763814
 30
0.0
 40
0.125
 41
0.0
 71
     1
 72
     1
  1
ML-38, 1 SLOT, 2B
  7
SLDTEXTSTYLE0
 73
     1
 44
1.0
  0
ENDSEC
  0
SECTION
  2
OBJECTS
  0
DICTIONARY
  5
C
330
0
100
AcDbDictionary
281
     1
  3
ACAD_GROUP
350
D
  3
ACAD_LAYOUT
350
1A
  3
ACAD_MLINESTYLE
350
17
  3
ACAD_PLOTSETTINGS
350
19
  3
ACAD_PLOTSTYLENAME
350
E
  3
ACAD_SCALELIST
350
47
  0
DICTIONARY
  5
D
102
{ACAD_REACTORS
330
C
102
}
330
C
100
AcDbDictionary
281
     1
  0
DICTIONARY
  5
1A
102
{ACAD_REACTORS
330
C
102
}
330
C
100
AcDbDictionary
281
     1
  3
Layout1
350
1E
  3
Layout2
350
26
  3
Model
350
22
  0
DICTIONARY
  5
17
102
{ACAD_REACTORS
330
C
102
}
330
C
100
AcDbDictionary
281
     1
  3
Standard
350
18
  0
DICTIONARY
  5
19
102
{ACAD_REACTORS
330
C
102
}
330
C
100
AcDbDictionary
281
     1
  0
ACDBDICTIONARYWDFLT
  5
E
102
{ACAD_REACTORS
330
C
102
}
330
C
100
AcDbDictionary
281
     1
  3
Normal
350
F
100
AcDbDictionaryWithDefault
340
F
  0
DICTIONARY
  5
47
102
{ACAD_REACTORS
330
C
102
}
330
C
100
AcDbDictionary
281
     1
  3
A0
350
48
  3
A1
350
49
  3
A2
350
4A
  3
A3
350
4B
  3
A4
350
4C
  3
A5
350
4D
  3
A6
350
4E
  3
A7
350
4F
  3
A8
350
50
  3
A9
350
51
  3
B0
350
52
  3
B1
350
53
  3
B2
350
54
  3
B3
350
55
  3
B4
350
56
  3
B5
350
57
  3
B6
350
58
  3
B7
350
59
  3
B8
350
5A
  3
B9
350
5B
  3
C0
350
5C
  3
C1
350
5D
  3
C2
350
5E
  3
C3
350
5F
  3
C4
350
60
  3
C5
350
61
  3
C6
350
62
  3
C7
350
63
  3
C8
350
64
  3
C9
350
65
  3
D0
350
66
  3
D1
350
67
  3
D2
350
68
  0
LAYOUT
  5
1E
102
{ACAD_REACTORS
330
1A
102
}
330
1A
100
AcDbPlotSettings
  1

  2
none_device
  4

  6

 40
0.0
 41
0.0
 42
0.0
 43
0.0
 44
0.0
 45
0.0
 46
0.0
 47
0.0
 48
0.0
 49
0.0
140
0.0
141
0.0
142
1.0
143
1.0
 70
   688
 72
     0
 73
     0
 74
     5
  7

 75
    16
147
1.0
148
0.0
149
0.0
100
AcDbLayout
  1
Layout1
 70
     1
 71
     1
 10
0.0
 20
0.0
 11
12.0
 21
9.0
 12
0.0
 22
0.0
 32
0.0
 14
1.0000000000E+20
 24
1.0000000000E+20
 34
1.0000000000E+20
 15
-1.0000000000E+20
 25
-1.0000000000E+20
 35
-1.0000000000E+20
146
0.0
 13
0.0
 23
0.0
 33
0.0
 16
1.0
 26
0.0
 36
0.0
 17
0.0
 27
1.0
 37
0.0
 76
     0
330
1B
  0
LAYOUT
  5
26
102
{ACAD_REACTORS
330
1A
102
}
330
1A
100
AcDbPlotSettings
  1

  2
none_device
  4

  6

 40
0.0
 41
0.0
 42
0.0
 43
0.0
 44
0.0
 45
0.0
 46
0.0
 47
0.0
 48
0.0
 49
0.0
140
0.0
141
0.0
142
1.0
143
1.0
 70
   688
 72
     0
 73
     0
 74
     5
  7

 75
    16
147
1.0
148
0.0
149
0.0
100
AcDbLayout
  1
Layout2
 70
     1
 71
     2
 10
0.0
 20
0.0
 11
0.0
 21
0.0
 12
0.0
 22
0.0
 32
0.0
 14
0.0
 24
0.0
 34
0.0
 15
0.0
 25
0.0
 35
0.0
146
0.0
 13
0.0
 23
0.0
 33
0.0
 16
1.0
 26
0.0
 36
0.0
 17
0.0
 27
1.0
 37
0.0
 76
     0
330
23
  0
LAYOUT
  5
22
102
{ACAD_REACTORS
330
1A
102
}
330
1A
100
AcDbPlotSettings
  1

  2
none_device
  4
Letter_(8.50_x_11.00_Inches)
  6

 40
6.35
 41
6.35
 42
6.35000508
 43
6.35000508
 44
215.9
 45
279.4
 46
0.0
 47
0.0
 48
0.0
 49
0.0
140
0.0
141
0.0
142
1.0
143
1.0
 70
  1712
 72
     0
 73
     0
 74
     0
  7

 75
     0
147
1.0
148
0.0
149
0.0
100
AcDbLayout
  1
Model
 70
     1
 71
     0
 10
0.0
 20
0.0
 11
11.0
 21
8.5
 12
0.0
 22
0.0
 32
0.0
 14
0.0
 24
0.0
 34
0.0
 15
11.0
 25
8.5
 35
0.0
146
0.0
 13
0.0
 23
0.0
 33
0.0
 16
1.0
 26
0.0
 36
0.0
 17
0.0
 27
1.0
 37
0.0
 76
     0
330
1F
331
29
  0
MLINESTYLE
  5
18
102
{ACAD_REACTORS
330
17
102
}
330
17
100
AcDbMlineStyle
  2
Standard
 70
     0
  3

 62
   256
 51
90.0
 52
90.0
 71
     2
 49
0.5
 62
   256
  6
BYLAYER
 49
-0.5
 62
   256
  6
BYLAYER
  0
ACDBPLACEHOLDER
  5
F
102
{ACAD_REACTORS
330
E
102
}
330
E
  0
SCALE
  5
48
102
{ACAD_REACTORS
330
47
102
}
330
47
100
AcDbScale
 70
     0
300
1:1
140
1.0
141
1.0
290
     1
  0
SCALE
  5
49
102
{ACAD_REACTORS
330
47
102
}
330
47
100
AcDbScale
 70
     0
300
1:2
140
1.0
141
2.0
290
     0
  0
SCALE
  5
4A
102
{ACAD_REACTORS
330
47
102
}
330
47
100
AcDbScale
 70
     0
300
1:4
140
1.0
141
4.0
290
     0
  0
SCALE
  5
4B
102
{ACAD_REACTORS
330
47
102
}
330
47
100
AcDbScale
 70
     0
300
1:5
140
1.0
141
5.0
290
     0
  0
SCALE
  5
4C
102
{ACAD_REACTORS
330
47
102
}
330
47
100
AcDbScale
 70
     0
300
1:8
140
1.0
141
8.0
290
     0
  0
SCALE
  5
4D
102
{ACAD_REACTORS
330
47
102
}
330
47
100
AcDbScale
 70
     0
300
1:10
140
1.0
141
10.0
290
     0
  0
SCALE
  5
4E
102
{ACAD_REACTORS
330
47
102
}
330
47
100
AcDbScale
 70
     0
300
1:16
140
1.0
141
16.0
290
     0
  0
SCALE
  5
4F
102
{ACAD_REACTORS
330
47
102
}
330
47
100
AcDbScale
 70
     0
300
1:20
140
1.0
141
20.0
290
     0
  0
SCALE
  5
50
102
{ACAD_REACTORS
330
47
102
}
330
47
100
AcDbScale
 70
     0
300
1:30
140
1.0
141
30.0
290
     0
  0
SCALE
  5
51
102
{ACAD_REACTORS
330
47
102
}
330
47
100
AcDbScale
 70
     0
300
1:40
140
1.0
141
40.0
290
     0
  0
SCALE
  5
52
102
{ACAD_REACTORS
330
47
102
}
330
47
100
AcDbScale
 70
     0
300
1:50
140
1.0
141
50.0
290
     0
  0
SCALE
  5
53
102
{ACAD_REACTORS
330
47
102
}
330
47
100
AcDbScale
 70
     0
300
1:100
140
1.0
141
100.0
290
     0
  0
SCALE
  5
54
102
{ACAD_REACTORS
330
47
102
}
330
47
100
AcDbScale
 70
     0
300
2:1
140
2.0
141
1.0
290
     0
  0
SCALE
  5
55
102
{ACAD_REACTORS
330
47
102
}
330
47
100
AcDbScale
 70
     0
300
4:1
140
4.0
141
1.0
290
     0
  0
SCALE
  5
56
102
{ACAD_REACTORS
330
47
102
}
330
47
100
AcDbScale
 70
     0
300
8:1
140
8.0
141
1.0
290
     0
  0
SCALE
  5
57
102
{ACAD_REACTORS
330
47
102
}
330
47
100
AcDbScale
 70
     0
300
10:1
140
10.0
141
1.0
290
     0
  0
SCALE
  5
58
102
{ACAD_REACTORS
330
47
102
}
330
47
100
AcDbScale
 70
     0
300
100:1
140
100.0
141
1.0
290
     0
  0
SCALE
  5
59
102
{ACAD_REACTORS
330
47
102
}
330
47
100
AcDbScale
 70
     0
300
1/128" = 1'-0"
140
0.0078125
141
12.0
290
     0
  0
SCALE
  5
5A
102
{ACAD_REACTORS
330
47
102
}
330
47
100
AcDbScale
 70
     0
300
1/64" = 1'-0"
140
0.015625
141
12.0
290
     0
  0
SCALE
  5
5B
102
{ACAD_REACTORS
330
47
102
}
330
47
100
AcDbScale
 70
     0
300
1/32" = 1'-0"
140
0.03125
141
12.0
290
     0
  0
SCALE
  5
5C
102
{ACAD_REACTORS
330
47
102
}
330
47
100
AcDbScale
 70
     0
300
1/16" = 1'-0"
140
0.0625
141
12.0
290
     0
  0
SCALE
  5
5D
102
{ACAD_REACTORS
330
47
102
}
330
47
100
AcDbScale
 70
     0
300
3/32" = 1'-0"
140
0.09375
141
12.0
290
     0
  0
SCALE
  5
5E
102
{ACAD_REACTORS
330
47
102
}
330
47
100
AcDbScale
 70
     0
300
1/8" = 1'-0"
140
0.125
141
12.0
290
     0
  0
SCALE
  5
5F
102
{ACAD_REACTORS
330
47
102
}
330
47
100
AcDbScale
 70
     0
300
3/16" = 1'-0"
140
0.1875
141
12.0
290
     0
  0
SCALE
  5
60
102
{ACAD_REACTORS
330
47
102
}
330
47
100
AcDbScale
 70
     0
300
1/4" = 1'-0"
140
0.25
141
12.0
290
     0
  0
SCALE
  5
61
102
{ACAD_REACTORS
330
47
102
}
330
47
100
AcDbScale
 70
     0
300
3/8" = 1'-0"
140
0.375
141
12.0
290
     0
  0
SCALE
  5
62
102
{ACAD_REACTORS
330
47
102
}
330
47
100
AcDbScale
 70
     0
300
1/2" = 1'-0"
140
0.5
141
12.0
290
     0
  0
SCALE
  5
63
102
{ACAD_REACTORS
330
47
102
}
330
47
100
AcDbScale
 70
     0
300
3/4" = 1'-0"
140
0.75
141
12.0
290
     0
  0
SCALE
  5
64
102
{ACAD_REACTORS
330
47
102
}
330
47
100
AcDbScale
 70
     0
300
1" = 1'-0"
140
1.0
141
12.0
290
     0
  0
SCALE
  5
65
102
{ACAD_REACTORS
330
47
102
}
330
47
100
AcDbScale
 70
     0
300
1-1/2" = 1'-0"
140
1.5
141
12.0
290
     0
  0
SCALE
  5
66
102
{ACAD_REACTORS
330
47
102
}
330
47
100
AcDbScale
 70
     0
300
3" = 1'-0"
140
3.0
141
12.0
290
     0
  0
SCALE
  5
67
102
{ACAD_REACTORS
330
47
102
}
330
47
100
AcDbScale
 70
     0
300
6" = 1'-0"
140
6.0
141
12.0
290
     0
  0
SCALE
  5
68
102
{ACAD_REACTORS
330
47
102
}
330
47
100
AcDbScale
 70
     0
300
1'-0" = 1'-0"
140
12.0
141
12.0
290
     0
  0
ENDSEC
  0
EOF
